0
SECTION
2
HEADER
9
$EXTMIN
10
1.5
20
1.5
9
$EXTMAX
10
1.5
20
1.5
9
$LIMMIN
10
0
20
0
9
$LIMMAX
10
15.00
20
15.00
0
ENDSEC
0
SECTION
2
TABLES
0
TABLE
2
LTYPE
70
3
0
LTYPE
2
LTYP_1
70
0
3
aus DTE-PlotView (pcae)
72
65
73
0
40
0.000000
0
LTYPE
2
LTYP_2
70
0
3
aus DTE-PlotView (pcae)
72
65
73
2
40
5.500000
49
3.000000
49
-2.500000
0
LTYPE
2
LTYP_3
70
0
3
aus DTE-PlotView (pcae)
72
65
73
4
40
9.000000
49
4.000000
49
-2.000000
49
1.000000
49
-2.000000
0
ENDTAB
0
TABLE
2
LAYER
70
5
0
LAYER
2
0
70
0
62
7
6
LTYP_1
0
LAYER
2
VOM$SYSTEM$VORDEFINIERT
70
0
62
7
6
LTYP_1
0
LAYER
2
M$BEL$1$100$$PCAE-PLOTVIEW$
70
0
62
7
6
LTYP_1
0
LAYER
2
VOM$SYSTEM$VORDEFINIERT
70
0
62
7
6
LTYP_1
0
LAYER
2
PCAE$FIRMENLOGO
70
0
62
7
6
LTYP_1
0
ENDTAB
0
ENDSEC
0
SECTION
2
BLOCKS
0
BLOCK
8
0
2
*X_SCHRAFFUR_1
70
65
10
0.0
20
0.0
30
0.0
3
*X
0
LINE
8
VOM$SYSTEM$VORDEFINIERT
6
LTYP_1
62
1
10
2.541
20
12.100
30
0.0
11
2.400
21
11.959
31
0.0
0
LINE
8
VOM$SYSTEM$VORDEFINIERT
6
LTYP_1
62
1
10
2.683
20
12.100
30
0.0
11
2.400
21
11.817
31
0.0
0
LINE
8
VOM$SYSTEM$VORDEFINIERT
6
LTYP_1
62
1
10
2.824
20
12.100
30
0.0
11
2.624
21
11.900
31
0.0
0
LINE
8
VOM$SYSTEM$VORDEFINIERT
6
LTYP_1
62
1
10
2.600
20
11.876
30
0.0
11
2.400
21
11.676
31
0.0
0
LINE
8
VOM$SYSTEM$VORDEFINIERT
6
LTYP_1
62
1
10
2.966
20
12.100
30
0.0
11
2.766
21
11.900
31
0.0
0
LINE
8
VOM$SYSTEM$VORDEFINIERT
6
LTYP_1
62
1
10
2.600
20
11.734
30
0.0
11
2.400
21
11.534
31
0.0
0
LINE
8
VOM$SYSTEM$VORDEFINIERT
6
LTYP_1
62
1
10
3.107
20
12.100
30
0.0
11
2.907
21
11.900
31
0.0
0
LINE
8
VOM$SYSTEM$VORDEFINIERT
6
LTYP_1
62
1
10
2.600
20
11.593
30
0.0
11
2.400
21
11.393
31
0.0
0
LINE
8
VOM$SYSTEM$VORDEFINIERT
6
LTYP_1
62
1
10
3.249
20
12.100
30
0.0
11
3.049
21
11.900
31
0.0
0
LINE
8
VOM$SYSTEM$VORDEFINIERT
6
LTYP_1
62
1
10
2.600
20
11.451
30
0.0
11
2.400
21
11.251
31
0.0
0
LINE
8
VOM$SYSTEM$VORDEFINIERT
6
LTYP_1
62
1
10
3.390
20
12.100
30
0.0
11
3.190
21
11.900
31
0.0
0
LINE
8
VOM$SYSTEM$VORDEFINIERT
6
LTYP_1
62
1
10
2.600
20
11.310
30
0.0
11
2.540
21
11.250
31
0.0
0
LINE
8
VOM$SYSTEM$VORDEFINIERT
6
LTYP_1
62
1
10
3.531
20
12.100
30
0.0
11
3.331
21
11.900
31
0.0
0
LINE
8
VOM$SYSTEM$VORDEFINIERT
6
LTYP_1
62
1
10
3.673
20
12.100
30
0.0
11
3.473
21
11.900
31
0.0
0
LINE
8
VOM$SYSTEM$VORDEFINIERT
6
LTYP_1
62
1
10
3.814
20
12.100
30
0.0
11
3.614
21
11.900
31
0.0
0
LINE
8
VOM$SYSTEM$VORDEFINIERT
6
LTYP_1
62
1
10
3.956
20
12.100
30
0.0
11
3.756
21
11.900
31
0.0
0
LINE
8
VOM$SYSTEM$VORDEFINIERT
6
LTYP_1
62
1
10
4.097
20
12.100
30
0.0
11
3.897
21
11.900
31
0.0
0
LINE
8
VOM$SYSTEM$VORDEFINIERT
6
LTYP_1
62
1
10
4.200
20
12.062
30
0.0
11
4.038
21
11.900
31
0.0
0
LINE
8
VOM$SYSTEM$VORDEFINIERT
6
LTYP_1
62
1
10
4.200
20
11.920
30
0.0
11
4.180
21
11.900
31
0.0
0
ENDBLK
0
BLOCK
8
0
2
*X_SCHRAFFUR_2
70
65
10
0.0
20
0.0
30
0.0
3
*X
0
LINE
8
VOM$SYSTEM$VORDEFINIERT
6
LTYP_1
62
1
10
2.541
20
10.100
30
0.0
11
2.400
21
9.959
31
0.0
0
LINE
8
VOM$SYSTEM$VORDEFINIERT
6
LTYP_1
62
1
10
2.600
20
10.017
30
0.0
11
2.400
21
9.817
31
0.0
0
LINE
8
VOM$SYSTEM$VORDEFINIERT
6
LTYP_1
62
1
10
2.600
20
9.876
30
0.0
11
2.400
21
9.676
31
0.0
0
LINE
8
VOM$SYSTEM$VORDEFINIERT
6
LTYP_1
62
1
10
2.600
20
9.734
30
0.0
11
2.400
21
9.534
31
0.0
0
LINE
8
VOM$SYSTEM$VORDEFINIERT
6
LTYP_1
62
1
10
2.657
20
9.650
30
0.0
11
2.400
21
9.393
31
0.0
0
LINE
8
VOM$SYSTEM$VORDEFINIERT
6
LTYP_1
62
1
10
2.799
20
9.650
30
0.0
11
2.649
21
9.500
31
0.0
0
LINE
8
VOM$SYSTEM$VORDEFINIERT
6
LTYP_1
62
1
10
2.600
20
9.451
30
0.0
11
2.400
21
9.251
31
0.0
0
LINE
8
VOM$SYSTEM$VORDEFINIERT
6
LTYP_1
62
1
10
2.940
20
9.650
30
0.0
11
2.790
21
9.500
31
0.0
0
LINE
8
VOM$SYSTEM$VORDEFINIERT
6
LTYP_1
62
1
10
2.600
20
9.310
30
0.0
11
2.400
21
9.110
31
0.0
0
LINE
8
VOM$SYSTEM$VORDEFINIERT
6
LTYP_1
62
1
10
3.081
20
9.650
30
0.0
11
2.931
21
9.500
31
0.0
0
LINE
8
VOM$SYSTEM$VORDEFINIERT
6
LTYP_1
62
1
10
2.600
20
9.169
30
0.0
11
2.400
21
8.969
31
0.0
0
LINE
8
VOM$SYSTEM$VORDEFINIERT
6
LTYP_1
62
1
10
3.223
20
9.650
30
0.0
11
3.073
21
9.500
31
0.0
0
LINE
8
VOM$SYSTEM$VORDEFINIERT
6
LTYP_1
62
1
10
2.600
20
9.027
30
0.0
11
2.400
21
8.827
31
0.0
0
LINE
8
VOM$SYSTEM$VORDEFINIERT
6
LTYP_1
62
1
10
3.364
20
9.650
30
0.0
11
3.214
21
9.500
31
0.0
0
LINE
8
VOM$SYSTEM$VORDEFINIERT
6
LTYP_1
62
1
10
2.600
20
8.886
30
0.0
11
2.400
21
8.686
31
0.0
0
LINE
8
VOM$SYSTEM$VORDEFINIERT
6
LTYP_1
62
1
10
3.506
20
9.650
30
0.0
11
3.356
21
9.500
31
0.0
0
LINE
8
VOM$SYSTEM$VORDEFINIERT
6
LTYP_1
62
1
10
2.600
20
8.744
30
0.0
11
2.400
21
8.544
31
0.0
0
LINE
8
VOM$SYSTEM$VORDEFINIERT
6
LTYP_1
62
1
10
3.647
20
9.650
30
0.0
11
3.497
21
9.500
31
0.0
0
LINE
8
VOM$SYSTEM$VORDEFINIERT
6
LTYP_1
62
1
10
2.600
20
8.603
30
0.0
11
2.497
21
8.500
31
0.0
0
LINE
8
VOM$SYSTEM$VORDEFINIERT
6
LTYP_1
62
1
10
3.788
20
9.650
30
0.0
11
3.638
21
9.500
31
0.0
0
LINE
8
VOM$SYSTEM$VORDEFINIERT
6
LTYP_1
62
1
10
3.930
20
9.650
30
0.0
11
3.780
21
9.500
31
0.0
0
LINE
8
VOM$SYSTEM$VORDEFINIERT
6
LTYP_1
62
1
10
4.071
20
9.650
30
0.0
11
3.921
21
9.500
31
0.0
0
LINE
8
VOM$SYSTEM$VORDEFINIERT
6
LTYP_1
62
1
10
4.213
20
9.650
30
0.0
11
4.063
21
9.500
31
0.0
0
LINE
8
VOM$SYSTEM$VORDEFINIERT
6
LTYP_1
62
1
10
4.354
20
9.650
30
0.0
11
4.204
21
9.500
31
0.0
0
LINE
8
VOM$SYSTEM$VORDEFINIERT
6
LTYP_1
62
1
10
4.496
20
9.650
30
0.0
11
4.346
21
9.500
31
0.0
0
LINE
8
VOM$SYSTEM$VORDEFINIERT
6
LTYP_1
62
1
10
4.637
20
9.650
30
0.0
11
4.487
21
9.500
31
0.0
0
LINE
8
VOM$SYSTEM$VORDEFINIERT
6
LTYP_1
62
1
10
4.778
20
9.650
30
0.0
11
4.628
21
9.500
31
0.0
0
LINE
8
VOM$SYSTEM$VORDEFINIERT
6
LTYP_1
62
1
10
4.920
20
9.650
30
0.0
11
4.770
21
9.500
31
0.0
0
LINE
8
VOM$SYSTEM$VORDEFINIERT
6
LTYP_1
62
1
10
5.061
20
9.650
30
0.0
11
4.911
21
9.500
31
0.0
0
LINE
8
VOM$SYSTEM$VORDEFINIERT
6
LTYP_1
62
1
10
5.203
20
9.650
30
0.0
11
5.053
21
9.500
31
0.0
0
LINE
8
VOM$SYSTEM$VORDEFINIERT
6
LTYP_1
62
1
10
5.344
20
9.650
30
0.0
11
5.194
21
9.500
31
0.0
0
LINE
8
VOM$SYSTEM$VORDEFINIERT
6
LTYP_1
62
1
10
5.486
20
9.650
30
0.0
11
5.336
21
9.500
31
0.0
0
LINE
8
VOM$SYSTEM$VORDEFINIERT
6
LTYP_1
62
1
10
5.627
20
9.650
30
0.0
11
5.477
21
9.500
31
0.0
0
LINE
8
VOM$SYSTEM$VORDEFINIERT
6
LTYP_1
62
1
10
5.768
20
9.650
30
0.0
11
5.500
21
9.382
31
0.0
0
LINE
8
VOM$SYSTEM$VORDEFINIERT
6
LTYP_1
62
1
10
5.850
20
9.590
30
0.0
11
5.760
21
9.500
31
0.0
0
LINE
8
VOM$SYSTEM$VORDEFINIERT
6
LTYP_1
62
1
10
5.650
20
9.390
30
0.0
11
5.500
21
9.240
31
0.0
0
LINE
8
VOM$SYSTEM$VORDEFINIERT
6
LTYP_1
62
1
10
5.650
20
9.249
30
0.0
11
5.500
21
9.099
31
0.0
0
LINE
8
VOM$SYSTEM$VORDEFINIERT
6
LTYP_1
62
1
10
5.650
20
9.107
30
0.0
11
5.500
21
8.957
31
0.0
0
LINE
8
VOM$SYSTEM$VORDEFINIERT
6
LTYP_1
62
1
10
5.650
20
8.966
30
0.0
11
5.500
21
8.816
31
0.0
0
LINE
8
VOM$SYSTEM$VORDEFINIERT
6
LTYP_1
62
1
10
5.650
20
8.825
30
0.0
11
5.500
21
8.675
31
0.0
0
LINE
8
VOM$SYSTEM$VORDEFINIERT
6
LTYP_1
62
1
10
5.650
20
8.683
30
0.0
11
5.617
21
8.650
31
0.0
0
ENDBLK
0
BLOCK
8
0
2
*X_SCHRAFFUR_3
70
65
10
0.0
20
0.0
30
0.0
3
*X
0
LINE
8
VOM$SYSTEM$VORDEFINIERT
6
LTYP_1
62
1
10
2.541
20
7.450
30
0.0
11
2.400
21
7.309
31
0.0
0
LINE
8
VOM$SYSTEM$VORDEFINIERT
6
LTYP_1
62
1
10
2.600
20
7.367
30
0.0
11
2.400
21
7.167
31
0.0
0
LINE
8
VOM$SYSTEM$VORDEFINIERT
6
LTYP_1
62
1
10
2.600
20
7.226
30
0.0
11
2.400
21
7.026
31
0.0
0
LINE
8
VOM$SYSTEM$VORDEFINIERT
6
LTYP_1
62
1
10
2.600
20
7.084
30
0.0
11
2.400
21
6.884
31
0.0
0
LINE
8
VOM$SYSTEM$VORDEFINIERT
6
LTYP_1
62
1
10
2.600
20
6.943
30
0.0
11
2.400
21
6.743
31
0.0
0
LINE
8
VOM$SYSTEM$VORDEFINIERT
6
LTYP_1
62
1
10
2.600
20
6.801
30
0.0
11
2.400
21
6.601
31
0.0
0
LINE
8
VOM$SYSTEM$VORDEFINIERT
6
LTYP_1
62
1
10
2.740
20
6.800
30
0.0
11
2.400
21
6.460
31
0.0
0
LINE
8
VOM$SYSTEM$VORDEFINIERT
6
LTYP_1
62
1
10
2.881
20
6.800
30
0.0
11
2.731
21
6.650
31
0.0
0
LINE
8
VOM$SYSTEM$VORDEFINIERT
6
LTYP_1
62
1
10
2.600
20
6.519
30
0.0
11
2.400
21
6.319
31
0.0
0
LINE
8
VOM$SYSTEM$VORDEFINIERT
6
LTYP_1
62
1
10
3.023
20
6.800
30
0.0
11
2.873
21
6.650
31
0.0
0
LINE
8
VOM$SYSTEM$VORDEFINIERT
6
LTYP_1
62
1
10
2.600
20
6.377
30
0.0
11
2.400
21
6.177
31
0.0
0
LINE
8
VOM$SYSTEM$VORDEFINIERT
6
LTYP_1
62
1
10
3.164
20
6.800
30
0.0
11
3.014
21
6.650
31
0.0
0
LINE
8
VOM$SYSTEM$VORDEFINIERT
6
LTYP_1
62
1
10
2.600
20
6.236
30
0.0
11
2.400
21
6.036
31
0.0
0
LINE
8
VOM$SYSTEM$VORDEFINIERT
6
LTYP_1
62
1
10
3.306
20
6.800
30
0.0
11
3.156
21
6.650
31
0.0
0
LINE
8
VOM$SYSTEM$VORDEFINIERT
6
LTYP_1
62
1
10
2.600
20
6.094
30
0.0
11
2.400
21
5.894
31
0.0
0
LINE
8
VOM$SYSTEM$VORDEFINIERT
6
LTYP_1
62
1
10
3.447
20
6.800
30
0.0
11
3.297
21
6.650
31
0.0
0
LINE
8
VOM$SYSTEM$VORDEFINIERT
6
LTYP_1
62
1
10
2.600
20
5.953
30
0.0
11
2.400
21
5.753
31
0.0
0
LINE
8
VOM$SYSTEM$VORDEFINIERT
6
LTYP_1
62
1
10
3.588
20
6.800
30
0.0
11
3.438
21
6.650
31
0.0
0
LINE
8
VOM$SYSTEM$VORDEFINIERT
6
LTYP_1
62
1
10
2.600
20
5.812
30
0.0
11
2.400
21
5.612
31
0.0
0
LINE
8
VOM$SYSTEM$VORDEFINIERT
6
LTYP_1
62
1
10
3.730
20
6.800
30
0.0
11
3.580
21
6.650
31
0.0
0
LINE
8
VOM$SYSTEM$VORDEFINIERT
6
LTYP_1
62
1
10
2.600
20
5.670
30
0.0
11
2.400
21
5.470
31
0.0
0
LINE
8
VOM$SYSTEM$VORDEFINIERT
6
LTYP_1
62
1
10
3.871
20
6.800
30
0.0
11
3.721
21
6.650
31
0.0
0
LINE
8
VOM$SYSTEM$VORDEFINIERT
6
LTYP_1
62
1
10
2.600
20
5.529
30
0.0
11
2.400
21
5.329
31
0.0
0
LINE
8
VOM$SYSTEM$VORDEFINIERT
6
LTYP_1
62
1
10
4.013
20
6.800
30
0.0
11
3.863
21
6.650
31
0.0
0
LINE
8
VOM$SYSTEM$VORDEFINIERT
6
LTYP_1
62
1
10
2.600
20
5.387
30
0.0
11
2.413
21
5.200
31
0.0
0
LINE
8
VOM$SYSTEM$VORDEFINIERT
6
LTYP_1
62
1
10
4.154
20
6.800
30
0.0
11
4.004
21
6.650
31
0.0
0
LINE
8
VOM$SYSTEM$VORDEFINIERT
6
LTYP_1
62
1
10
2.600
20
5.246
30
0.0
11
2.554
21
5.200
31
0.0
0
LINE
8
VOM$SYSTEM$VORDEFINIERT
6
LTYP_1
62
1
10
4.296
20
6.800
30
0.0
11
4.146
21
6.650
31
0.0
0
LINE
8
VOM$SYSTEM$VORDEFINIERT
6
LTYP_1
62
1
10
5.537
20
7.900
30
0.0
11
5.500
21
7.863
31
0.0
0
LINE
8
VOM$SYSTEM$VORDEFINIERT
6
LTYP_1
62
1
10
4.437
20
6.800
30
0.0
11
4.287
21
6.650
31
0.0
0
LINE
8
VOM$SYSTEM$VORDEFINIERT
6
LTYP_1
62
1
10
5.650
20
7.872
30
0.0
11
5.500
21
7.722
31
0.0
0
LINE
8
VOM$SYSTEM$VORDEFINIERT
6
LTYP_1
62
1
10
4.578
20
6.800
30
0.0
11
4.428
21
6.650
31
0.0
0
LINE
8
VOM$SYSTEM$VORDEFINIERT
6
LTYP_1
62
1
10
5.650
20
7.730
30
0.0
11
5.500
21
7.580
31
0.0
0
LINE
8
VOM$SYSTEM$VORDEFINIERT
6
LTYP_1
62
1
10
4.720
20
6.800
30
0.0
11
4.570
21
6.650
31
0.0
0
LINE
8
VOM$SYSTEM$VORDEFINIERT
6
LTYP_1
62
1
10
5.650
20
7.589
30
0.0
11
5.500
21
7.439
31
0.0
0
LINE
8
VOM$SYSTEM$VORDEFINIERT
6
LTYP_1
62
1
10
4.861
20
6.800
30
0.0
11
4.711
21
6.650
31
0.0
0
LINE
8
VOM$SYSTEM$VORDEFINIERT
6
LTYP_1
62
1
10
5.650
20
7.447
30
0.0
11
5.500
21
7.297
31
0.0
0
LINE
8
VOM$SYSTEM$VORDEFINIERT
6
LTYP_1
62
1
10
5.003
20
6.800
30
0.0
11
4.853
21
6.650
31
0.0
0
LINE
8
VOM$SYSTEM$VORDEFINIERT
6
LTYP_1
62
1
10
5.650
20
7.306
30
0.0
11
5.500
21
7.156
31
0.0
0
LINE
8
VOM$SYSTEM$VORDEFINIERT
6
LTYP_1
62
1
10
5.144
20
6.800
30
0.0
11
4.994
21
6.650
31
0.0
0
LINE
8
VOM$SYSTEM$VORDEFINIERT
6
LTYP_1
62
1
10
5.650
20
7.164
30
0.0
11
5.500
21
7.014
31
0.0
0
LINE
8
VOM$SYSTEM$VORDEFINIERT
6
LTYP_1
62
1
10
5.286
20
6.800
30
0.0
11
5.136
21
6.650
31
0.0
0
LINE
8
VOM$SYSTEM$VORDEFINIERT
6
LTYP_1
62
1
10
5.650
20
7.023
30
0.0
11
5.500
21
6.873
31
0.0
0
LINE
8
VOM$SYSTEM$VORDEFINIERT
6
LTYP_1
62
1
10
5.427
20
6.800
30
0.0
11
5.277
21
6.650
31
0.0
0
LINE
8
VOM$SYSTEM$VORDEFINIERT
6
LTYP_1
62
1
10
5.650
20
6.882
30
0.0
11
5.418
21
6.650
31
0.0
0
LINE
8
VOM$SYSTEM$VORDEFINIERT
6
LTYP_1
62
1
10
5.650
20
6.740
30
0.0
11
5.560
21
6.650
31
0.0
0
ENDBLK
0
BLOCK
8
0
2
*X_SCHRAFFUR_4
70
65
10
0.0
20
0.0
30
0.0
3
*X
0
LINE
8
VOM$SYSTEM$VORDEFINIERT
6
LTYP_1
62
1
10
10.941
20
7.650
30
0.0
11
10.800
21
7.509
31
0.0
0
LINE
8
VOM$SYSTEM$VORDEFINIERT
6
LTYP_1
62
1
10
11.083
20
7.650
30
0.0
11
10.933
21
7.500
31
0.0
0
LINE
8
VOM$SYSTEM$VORDEFINIERT
6
LTYP_1
62
1
10
11.224
20
7.650
30
0.0
11
11.000
21
7.426
31
0.0
0
LINE
8
VOM$SYSTEM$VORDEFINIERT
6
LTYP_1
62
1
10
11.366
20
7.650
30
0.0
11
11.216
21
7.500
31
0.0
0
LINE
8
VOM$SYSTEM$VORDEFINIERT
6
LTYP_1
62
1
10
11.150
20
7.434
30
0.0
11
11.000
21
7.284
31
0.0
0
LINE
8
VOM$SYSTEM$VORDEFINIERT
6
LTYP_1
62
1
10
11.507
20
7.650
30
0.0
11
11.357
21
7.500
31
0.0
0
LINE
8
VOM$SYSTEM$VORDEFINIERT
6
LTYP_1
62
1
10
11.150
20
7.293
30
0.0
11
11.000
21
7.143
31
0.0
0
LINE
8
VOM$SYSTEM$VORDEFINIERT
6
LTYP_1
62
1
10
11.649
20
7.650
30
0.0
11
11.499
21
7.500
31
0.0
0
LINE
8
VOM$SYSTEM$VORDEFINIERT
6
LTYP_1
62
1
10
11.150
20
7.151
30
0.0
11
11.000
21
7.001
31
0.0
0
LINE
8
VOM$SYSTEM$VORDEFINIERT
6
LTYP_1
62
1
10
11.790
20
7.650
30
0.0
11
11.640
21
7.500
31
0.0
0
LINE
8
VOM$SYSTEM$VORDEFINIERT
6
LTYP_1
62
1
10
11.150
20
7.010
30
0.0
11
11.000
21
6.860
31
0.0
0
LINE
8
VOM$SYSTEM$VORDEFINIERT
6
LTYP_1
62
1
10
11.931
20
7.650
30
0.0
11
11.781
21
7.500
31
0.0
0
LINE
8
VOM$SYSTEM$VORDEFINIERT
6
LTYP_1
62
1
10
11.150
20
6.869
30
0.0
11
11.000
21
6.719
31
0.0
0
LINE
8
VOM$SYSTEM$VORDEFINIERT
6
LTYP_1
62
1
10
12.073
20
7.650
30
0.0
11
11.923
21
7.500
31
0.0
0
LINE
8
VOM$SYSTEM$VORDEFINIERT
6
LTYP_1
62
1
10
11.150
20
6.727
30
0.0
11
11.000
21
6.577
31
0.0
0
LINE
8
VOM$SYSTEM$VORDEFINIERT
6
LTYP_1
62
1
10
12.214
20
7.650
30
0.0
11
12.064
21
7.500
31
0.0
0
LINE
8
VOM$SYSTEM$VORDEFINIERT
6
LTYP_1
62
1
10
11.150
20
6.586
30
0.0
11
11.000
21
6.436
31
0.0
0
LINE
8
VOM$SYSTEM$VORDEFINIERT
6
LTYP_1
62
1
10
12.356
20
7.650
30
0.0
11
12.206
21
7.500
31
0.0
0
LINE
8
VOM$SYSTEM$VORDEFINIERT
6
LTYP_1
62
1
10
11.150
20
6.444
30
0.0
11
11.000
21
6.294
31
0.0
0
LINE
8
VOM$SYSTEM$VORDEFINIERT
6
LTYP_1
62
1
10
12.497
20
7.650
30
0.0
11
12.347
21
7.500
31
0.0
0
LINE
8
VOM$SYSTEM$VORDEFINIERT
6
LTYP_1
62
1
10
11.150
20
6.303
30
0.0
11
11.000
21
6.153
31
0.0
0
LINE
8
VOM$SYSTEM$VORDEFINIERT
6
LTYP_1
62
1
10
12.638
20
7.650
30
0.0
11
12.488
21
7.500
31
0.0
0
LINE
8
VOM$SYSTEM$VORDEFINIERT
6
LTYP_1
62
1
10
11.288
20
6.300
30
0.0
11
11.088
21
6.100
31
0.0
0
LINE
8
VOM$SYSTEM$VORDEFINIERT
6
LTYP_1
62
1
10
13.480
20
8.350
30
0.0
11
13.400
21
8.270
31
0.0
0
LINE
8
VOM$SYSTEM$VORDEFINIERT
6
LTYP_1
62
1
10
12.780
20
7.650
30
0.0
11
12.630
21
7.500
31
0.0
0
LINE
8
VOM$SYSTEM$VORDEFINIERT
6
LTYP_1
62
1
10
11.400
20
6.270
30
0.0
11
11.230
21
6.100
31
0.0
0
LINE
8
VOM$SYSTEM$VORDEFINIERT
6
LTYP_1
62
1
10
13.600
20
8.329
30
0.0
11
13.400
21
8.129
31
0.0
0
LINE
8
VOM$SYSTEM$VORDEFINIERT
6
LTYP_1
62
1
10
12.921
20
7.650
30
0.0
11
12.771
21
7.500
31
0.0
0
LINE
8
VOM$SYSTEM$VORDEFINIERT
6
LTYP_1
62
1
10
11.400
20
6.129
30
0.0
11
11.371
21
6.100
31
0.0
0
LINE
8
VOM$SYSTEM$VORDEFINIERT
6
LTYP_1
62
1
10
13.600
20
8.187
30
0.0
11
13.400
21
7.987
31
0.0
0
LINE
8
VOM$SYSTEM$VORDEFINIERT
6
LTYP_1
62
1
10
13.063
20
7.650
30
0.0
11
12.913
21
7.500
31
0.0
0
LINE
8
VOM$SYSTEM$VORDEFINIERT
6
LTYP_1
62
1
10
13.600
20
8.046
30
0.0
11
13.400
21
7.846
31
0.0
0
LINE
8
VOM$SYSTEM$VORDEFINIERT
6
LTYP_1
62
1
10
13.204
20
7.650
30
0.0
11
13.054
21
7.500
31
0.0
0
LINE
8
VOM$SYSTEM$VORDEFINIERT
6
LTYP_1
62
1
10
13.600
20
7.904
30
0.0
11
13.400
21
7.704
31
0.0
0
LINE
8
VOM$SYSTEM$VORDEFINIERT
6
LTYP_1
62
1
10
13.346
20
7.650
30
0.0
11
13.196
21
7.500
31
0.0
0
LINE
8
VOM$SYSTEM$VORDEFINIERT
6
LTYP_1
62
1
10
13.600
20
7.763
30
0.0
11
13.337
21
7.500
31
0.0
0
LINE
8
VOM$SYSTEM$VORDEFINIERT
6
LTYP_1
62
1
10
13.600
20
7.622
30
0.0
11
13.400
21
7.422
31
0.0
0
LINE
8
VOM$SYSTEM$VORDEFINIERT
6
LTYP_1
62
1
10
13.600
20
7.480
30
0.0
11
13.420
21
7.300
31
0.0
0
LINE
8
VOM$SYSTEM$VORDEFINIERT
6
LTYP_1
62
1
10
13.600
20
7.339
30
0.0
11
13.561
21
7.300
31
0.0
0
ENDBLK
0
BLOCK
8
0
2
*X_SCHRAFFUR_5
70
65
10
0.0
20
0.0
30
0.0
3
*X
0
LINE
8
VOM$SYSTEM$VORDEFINIERT
6
LTYP_1
62
1
10
2.541
20
3.250
30
0.0
11
2.400
21
3.109
31
0.0
0
LINE
8
VOM$SYSTEM$VORDEFINIERT
6
LTYP_1
62
1
10
2.600
20
3.167
30
0.0
11
2.400
21
2.967
31
0.0
0
LINE
8
VOM$SYSTEM$VORDEFINIERT
6
LTYP_1
62
1
10
2.600
20
3.026
30
0.0
11
2.400
21
2.826
31
0.0
0
LINE
8
VOM$SYSTEM$VORDEFINIERT
6
LTYP_1
62
1
10
2.600
20
2.884
30
0.0
11
2.400
21
2.684
31
0.0
0
LINE
8
VOM$SYSTEM$VORDEFINIERT
6
LTYP_1
62
1
10
2.600
20
2.743
30
0.0
11
2.400
21
2.543
31
0.0
0
LINE
8
VOM$SYSTEM$VORDEFINIERT
6
LTYP_1
62
1
10
2.600
20
2.601
30
0.0
11
2.400
21
2.401
31
0.0
0
LINE
8
VOM$SYSTEM$VORDEFINIERT
6
LTYP_1
62
1
10
2.740
20
2.600
30
0.0
11
2.540
21
2.400
31
0.0
0
LINE
8
VOM$SYSTEM$VORDEFINIERT
6
LTYP_1
62
1
10
2.881
20
2.600
30
0.0
11
2.681
21
2.400
31
0.0
0
LINE
8
VOM$SYSTEM$VORDEFINIERT
6
LTYP_1
62
1
10
3.023
20
2.600
30
0.0
11
2.823
21
2.400
31
0.0
0
LINE
8
VOM$SYSTEM$VORDEFINIERT
6
LTYP_1
62
1
10
3.164
20
2.600
30
0.0
11
2.964
21
2.400
31
0.0
0
LINE
8
VOM$SYSTEM$VORDEFINIERT
6
LTYP_1
62
1
10
3.250
20
2.544
30
0.0
11
3.106
21
2.400
31
0.0
0
LINE
8
VOM$SYSTEM$VORDEFINIERT
6
LTYP_1
62
1
10
3.250
20
2.403
30
0.0
11
3.247
21
2.400
31
0.0
0
ENDBLK
0
BLOCK
8
0
2
*X_SCHRAFFUR_6
70
65
10
0.0
20
0.0
30
0.0
3
*X
0
LINE
8
VOM$SYSTEM$VORDEFINIERT
6
LTYP_1
62
1
10
6.791
20
12.100
30
0.0
11
6.650
21
11.959
31
0.0
0
LINE
8
VOM$SYSTEM$VORDEFINIERT
6
LTYP_1
62
1
10
6.933
20
12.100
30
0.0
11
6.733
21
11.900
31
0.0
0
LINE
8
VOM$SYSTEM$VORDEFINIERT
6
LTYP_1
62
1
10
7.074
20
12.100
30
0.0
11
6.874
21
11.900
31
0.0
0
LINE
8
VOM$SYSTEM$VORDEFINIERT
6
LTYP_1
62
1
10
7.216
20
12.100
30
0.0
11
7.016
21
11.900
31
0.0
0
LINE
8
VOM$SYSTEM$VORDEFINIERT
6
LTYP_1
62
1
10
7.357
20
12.100
30
0.0
11
7.100
21
11.843
31
0.0
0
LINE
8
VOM$SYSTEM$VORDEFINIERT
6
LTYP_1
62
1
10
7.499
20
12.100
30
0.0
11
7.299
21
11.900
31
0.0
0
LINE
8
VOM$SYSTEM$VORDEFINIERT
6
LTYP_1
62
1
10
7.250
20
11.851
30
0.0
11
7.100
21
11.701
31
0.0
0
LINE
8
VOM$SYSTEM$VORDEFINIERT
6
LTYP_1
62
1
10
7.640
20
12.100
30
0.0
11
7.440
21
11.900
31
0.0
0
LINE
8
VOM$SYSTEM$VORDEFINIERT
6
LTYP_1
62
1
10
7.250
20
11.710
30
0.0
11
7.100
21
11.560
31
0.0
0
LINE
8
VOM$SYSTEM$VORDEFINIERT
6
LTYP_1
62
1
10
7.781
20
12.100
30
0.0
11
7.581
21
11.900
31
0.0
0
LINE
8
VOM$SYSTEM$VORDEFINIERT
6
LTYP_1
62
1
10
7.250
20
11.569
30
0.0
11
7.100
21
11.419
31
0.0
0
LINE
8
VOM$SYSTEM$VORDEFINIERT
6
LTYP_1
62
1
10
7.850
20
12.027
30
0.0
11
7.723
21
11.900
31
0.0
0
LINE
8
VOM$SYSTEM$VORDEFINIERT
6
LTYP_1
62
1
10
7.250
20
11.427
30
0.0
11
7.100
21
11.277
31
0.0
0
LINE
8
VOM$SYSTEM$VORDEFINIERT
6
LTYP_1
62
1
10
7.250
20
11.286
30
0.0
11
7.100
21
11.136
31
0.0
0
LINE
8
VOM$SYSTEM$VORDEFINIERT
6
LTYP_1
62
1
10
7.250
20
11.144
30
0.0
11
7.100
21
10.994
31
0.0
0
LINE
8
VOM$SYSTEM$VORDEFINIERT
6
LTYP_1
62
1
10
7.250
20
11.003
30
0.0
11
7.100
21
10.853
31
0.0
0
LINE
8
VOM$SYSTEM$VORDEFINIERT
6
LTYP_1
62
1
10
7.250
20
10.862
30
0.0
11
7.100
21
10.712
31
0.0
0
LINE
8
VOM$SYSTEM$VORDEFINIERT
6
LTYP_1
62
1
10
7.250
20
10.720
30
0.0
11
7.100
21
10.570
31
0.0
0
LINE
8
VOM$SYSTEM$VORDEFINIERT
6
LTYP_1
62
1
10
7.250
20
10.579
30
0.0
11
7.100
21
10.429
31
0.0
0
LINE
8
VOM$SYSTEM$VORDEFINIERT
6
LTYP_1
62
1
10
7.250
20
10.437
30
0.0
11
7.100
21
10.287
31
0.0
0
LINE
8
VOM$SYSTEM$VORDEFINIERT
6
LTYP_1
62
1
10
7.250
20
10.296
30
0.0
11
7.100
21
10.146
31
0.0
0
LINE
8
VOM$SYSTEM$VORDEFINIERT
6
LTYP_1
62
1
10
7.250
20
10.154
30
0.0
11
7.100
21
10.004
31
0.0
0
LINE
8
VOM$SYSTEM$VORDEFINIERT
6
LTYP_1
62
1
10
6.746
20
9.650
30
0.0
11
6.650
21
9.554
31
0.0
0
LINE
8
VOM$SYSTEM$VORDEFINIERT
6
LTYP_1
62
1
10
7.250
20
10.013
30
0.0
11
7.100
21
9.863
31
0.0
0
LINE
8
VOM$SYSTEM$VORDEFINIERT
6
LTYP_1
62
1
10
6.887
20
9.650
30
0.0
11
6.737
21
9.500
31
0.0
0
LINE
8
VOM$SYSTEM$VORDEFINIERT
6
LTYP_1
62
1
10
7.250
20
9.872
30
0.0
11
7.100
21
9.722
31
0.0
0
LINE
8
VOM$SYSTEM$VORDEFINIERT
6
LTYP_1
62
1
10
7.028
20
9.650
30
0.0
11
6.878
21
9.500
31
0.0
0
LINE
8
VOM$SYSTEM$VORDEFINIERT
6
LTYP_1
62
1
10
7.250
20
9.730
30
0.0
11
7.020
21
9.500
31
0.0
0
LINE
8
VOM$SYSTEM$VORDEFINIERT
6
LTYP_1
62
1
10
7.250
20
9.589
30
0.0
11
7.100
21
9.439
31
0.0
0
LINE
8
VOM$SYSTEM$VORDEFINIERT
6
LTYP_1
62
1
10
7.250
20
9.447
30
0.0
11
7.100
21
9.297
31
0.0
0
LINE
8
VOM$SYSTEM$VORDEFINIERT
6
LTYP_1
62
1
10
7.250
20
9.306
30
0.0
11
7.100
21
9.156
31
0.0
0
LINE
8
VOM$SYSTEM$VORDEFINIERT
6
LTYP_1
62
1
10
7.250
20
9.164
30
0.0
11
7.100
21
9.014
31
0.0
0
LINE
8
VOM$SYSTEM$VORDEFINIERT
6
LTYP_1
62
1
10
7.250
20
9.023
30
0.0
11
7.100
21
8.873
31
0.0
0
LINE
8
VOM$SYSTEM$VORDEFINIERT
6
LTYP_1
62
1
10
7.250
20
8.882
30
0.0
11
7.100
21
8.732
31
0.0
0
LINE
8
VOM$SYSTEM$VORDEFINIERT
6
LTYP_1
62
1
10
7.250
20
8.740
30
0.0
11
7.100
21
8.590
31
0.0
0
LINE
8
VOM$SYSTEM$VORDEFINIERT
6
LTYP_1
62
1
10
7.250
20
8.599
30
0.0
11
7.100
21
8.449
31
0.0
0
LINE
8
VOM$SYSTEM$VORDEFINIERT
6
LTYP_1
62
1
10
7.250
20
8.457
30
0.0
11
7.100
21
8.307
31
0.0
0
LINE
8
VOM$SYSTEM$VORDEFINIERT
6
LTYP_1
62
1
10
7.284
20
8.350
30
0.0
11
7.100
21
8.166
31
0.0
0
LINE
8
VOM$SYSTEM$VORDEFINIERT
6
LTYP_1
62
1
10
7.425
20
8.350
30
0.0
11
7.275
21
8.200
31
0.0
0
LINE
8
VOM$SYSTEM$VORDEFINIERT
6
LTYP_1
62
1
10
7.250
20
8.175
30
0.0
11
7.100
21
8.025
31
0.0
0
LINE
8
VOM$SYSTEM$VORDEFINIERT
6
LTYP_1
62
1
10
7.567
20
8.350
30
0.0
11
7.417
21
8.200
31
0.0
0
LINE
8
VOM$SYSTEM$VORDEFINIERT
6
LTYP_1
62
1
10
7.250
20
8.033
30
0.0
11
7.100
21
7.883
31
0.0
0
LINE
8
VOM$SYSTEM$VORDEFINIERT
6
LTYP_1
62
1
10
7.708
20
8.350
30
0.0
11
7.558
21
8.200
31
0.0
0
LINE
8
VOM$SYSTEM$VORDEFINIERT
6
LTYP_1
62
1
10
7.250
20
7.892
30
0.0
11
7.100
21
7.742
31
0.0
0
LINE
8
VOM$SYSTEM$VORDEFINIERT
6
LTYP_1
62
1
10
7.850
20
8.350
30
0.0
11
7.700
21
8.200
31
0.0
0
LINE
8
VOM$SYSTEM$VORDEFINIERT
6
LTYP_1
62
1
10
7.250
20
7.750
30
0.0
11
7.100
21
7.600
31
0.0
0
LINE
8
VOM$SYSTEM$VORDEFINIERT
6
LTYP_1
62
1
10
7.991
20
8.350
30
0.0
11
7.841
21
8.200
31
0.0
0
LINE
8
VOM$SYSTEM$VORDEFINIERT
6
LTYP_1
62
1
10
7.250
20
7.609
30
0.0
11
7.100
21
7.459
31
0.0
0
LINE
8
VOM$SYSTEM$VORDEFINIERT
6
LTYP_1
62
1
10
8.133
20
8.350
30
0.0
11
7.983
21
8.200
31
0.0
0
LINE
8
VOM$SYSTEM$VORDEFINIERT
6
LTYP_1
62
1
10
7.250
20
7.467
30
0.0
11
7.100
21
7.317
31
0.0
0
LINE
8
VOM$SYSTEM$VORDEFINIERT
6
LTYP_1
62
1
10
8.274
20
8.350
30
0.0
11
8.124
21
8.200
31
0.0
0
LINE
8
VOM$SYSTEM$VORDEFINIERT
6
LTYP_1
62
1
10
7.250
20
7.326
30
0.0
11
7.100
21
7.176
31
0.0
0
LINE
8
VOM$SYSTEM$VORDEFINIERT
6
LTYP_1
62
1
10
8.415
20
8.350
30
0.0
11
8.265
21
8.200
31
0.0
0
LINE
8
VOM$SYSTEM$VORDEFINIERT
6
LTYP_1
62
1
10
7.250
20
7.185
30
0.0
11
7.165
21
7.100
31
0.0
0
LINE
8
VOM$SYSTEM$VORDEFINIERT
6
LTYP_1
62
1
10
8.557
20
8.350
30
0.0
11
8.407
21
8.200
31
0.0
0
LINE
8
VOM$SYSTEM$VORDEFINIERT
6
LTYP_1
62
1
10
8.698
20
8.350
30
0.0
11
8.548
21
8.200
31
0.0
0
LINE
8
VOM$SYSTEM$VORDEFINIERT
6
LTYP_1
62
1
10
8.800
20
8.310
30
0.0
11
8.690
21
8.200
31
0.0
0
ENDBLK
0
BLOCK
8
0
2
*X_SCHRAFFUR_7
70
65
10
0.0
20
0.0
30
0.0
3
*X
0
LINE
8
VOM$SYSTEM$VORDEFINIERT
6
LTYP_1
62
1
10
9.241
20
12.100
30
0.0
11
9.100
21
11.959
31
0.0
0
LINE
8
VOM$SYSTEM$VORDEFINIERT
6
LTYP_1
62
1
10
9.383
20
12.100
30
0.0
11
9.183
21
11.900
31
0.0
0
LINE
8
VOM$SYSTEM$VORDEFINIERT
6
LTYP_1
62
1
10
9.524
20
12.100
30
0.0
11
9.324
21
11.900
31
0.0
0
LINE
8
VOM$SYSTEM$VORDEFINIERT
6
LTYP_1
62
1
10
9.666
20
12.100
30
0.0
11
9.466
21
11.900
31
0.0
0
LINE
8
VOM$SYSTEM$VORDEFINIERT
6
LTYP_1
62
1
10
9.807
20
12.100
30
0.0
11
9.607
21
11.900
31
0.0
0
LINE
8
VOM$SYSTEM$VORDEFINIERT
6
LTYP_1
62
1
10
9.949
20
12.100
30
0.0
11
9.749
21
11.900
31
0.0
0
LINE
8
VOM$SYSTEM$VORDEFINIERT
6
LTYP_1
62
1
10
10.000
20
12.010
30
0.0
11
9.750
21
11.760
31
0.0
0
LINE
8
VOM$SYSTEM$VORDEFINIERT
6
LTYP_1
62
1
10
9.900
20
11.769
30
0.0
11
9.750
21
11.619
31
0.0
0
LINE
8
VOM$SYSTEM$VORDEFINIERT
6
LTYP_1
62
1
10
9.900
20
11.627
30
0.0
11
9.750
21
11.477
31
0.0
0
LINE
8
VOM$SYSTEM$VORDEFINIERT
6
LTYP_1
62
1
10
9.900
20
11.486
30
0.0
11
9.750
21
11.336
31
0.0
0
LINE
8
VOM$SYSTEM$VORDEFINIERT
6
LTYP_1
62
1
10
9.900
20
11.344
30
0.0
11
9.750
21
11.194
31
0.0
0
LINE
8
VOM$SYSTEM$VORDEFINIERT
6
LTYP_1
62
1
10
9.900
20
11.203
30
0.0
11
9.750
21
11.053
31
0.0
0
LINE
8
VOM$SYSTEM$VORDEFINIERT
6
LTYP_1
62
1
10
9.900
20
11.062
30
0.0
11
9.750
21
10.912
31
0.0
0
LINE
8
VOM$SYSTEM$VORDEFINIERT
6
LTYP_1
62
1
10
9.900
20
10.920
30
0.0
11
9.750
21
10.770
31
0.0
0
LINE
8
VOM$SYSTEM$VORDEFINIERT
6
LTYP_1
62
1
10
9.900
20
10.779
30
0.0
11
9.750
21
10.629
31
0.0
0
LINE
8
VOM$SYSTEM$VORDEFINIERT
6
LTYP_1
62
1
10
9.900
20
10.637
30
0.0
11
9.750
21
10.487
31
0.0
0
LINE
8
VOM$SYSTEM$VORDEFINIERT
6
LTYP_1
62
1
10
9.900
20
10.496
30
0.0
11
9.750
21
10.346
31
0.0
0
LINE
8
VOM$SYSTEM$VORDEFINIERT
6
LTYP_1
62
1
10
9.900
20
10.354
30
0.0
11
9.750
21
10.204
31
0.0
0
LINE
8
VOM$SYSTEM$VORDEFINIERT
6
LTYP_1
62
1
10
9.900
20
10.213
30
0.0
11
9.750
21
10.063
31
0.0
0
LINE
8
VOM$SYSTEM$VORDEFINIERT
6
LTYP_1
62
1
10
9.900
20
10.072
30
0.0
11
9.750
21
9.922
31
0.0
0
LINE
8
VOM$SYSTEM$VORDEFINIERT
6
LTYP_1
62
1
10
9.900
20
9.930
30
0.0
11
9.750
21
9.780
31
0.0
0
LINE
8
VOM$SYSTEM$VORDEFINIERT
6
LTYP_1
62
1
10
9.900
20
9.789
30
0.0
11
9.750
21
9.639
31
0.0
0
LINE
8
VOM$SYSTEM$VORDEFINIERT
6
LTYP_1
62
1
10
9.900
20
9.647
30
0.0
11
9.750
21
9.497
31
0.0
0
LINE
8
VOM$SYSTEM$VORDEFINIERT
6
LTYP_1
62
1
10
9.900
20
9.506
30
0.0
11
9.750
21
9.356
31
0.0
0
LINE
8
VOM$SYSTEM$VORDEFINIERT
6
LTYP_1
62
1
10
9.900
20
9.364
30
0.0
11
9.750
21
9.214
31
0.0
0
LINE
8
VOM$SYSTEM$VORDEFINIERT
6
LTYP_1
62
1
10
9.900
20
9.223
30
0.0
11
9.750
21
9.073
31
0.0
0
LINE
8
VOM$SYSTEM$VORDEFINIERT
6
LTYP_1
62
1
10
9.900
20
9.082
30
0.0
11
9.750
21
8.932
31
0.0
0
LINE
8
VOM$SYSTEM$VORDEFINIERT
6
LTYP_1
62
1
10
9.900
20
8.940
30
0.0
11
9.750
21
8.790
31
0.0
0
LINE
8
VOM$SYSTEM$VORDEFINIERT
6
LTYP_1
62
1
10
9.900
20
8.799
30
0.0
11
9.750
21
8.649
31
0.0
0
LINE
8
VOM$SYSTEM$VORDEFINIERT
6
LTYP_1
62
1
10
9.900
20
8.657
30
0.0
11
9.750
21
8.507
31
0.0
0
LINE
8
VOM$SYSTEM$VORDEFINIERT
6
LTYP_1
62
1
10
9.593
20
8.350
30
0.0
11
9.500
21
8.257
31
0.0
0
LINE
8
VOM$SYSTEM$VORDEFINIERT
6
LTYP_1
62
1
10
9.900
20
8.516
30
0.0
11
9.750
21
8.366
31
0.0
0
LINE
8
VOM$SYSTEM$VORDEFINIERT
6
LTYP_1
62
1
10
9.734
20
8.350
30
0.0
11
9.584
21
8.200
31
0.0
0
LINE
8
VOM$SYSTEM$VORDEFINIERT
6
LTYP_1
62
1
10
9.900
20
8.375
30
0.0
11
9.725
21
8.200
31
0.0
0
LINE
8
VOM$SYSTEM$VORDEFINIERT
6
LTYP_1
62
1
10
9.900
20
8.233
30
0.0
11
9.750
21
8.083
31
0.0
0
LINE
8
VOM$SYSTEM$VORDEFINIERT
6
LTYP_1
62
1
10
9.900
20
8.092
30
0.0
11
9.750
21
7.942
31
0.0
0
LINE
8
VOM$SYSTEM$VORDEFINIERT
6
LTYP_1
62
1
10
9.900
20
7.950
30
0.0
11
9.750
21
7.800
31
0.0
0
LINE
8
VOM$SYSTEM$VORDEFINIERT
6
LTYP_1
62
1
10
9.900
20
7.809
30
0.0
11
9.750
21
7.659
31
0.0
0
LINE
8
VOM$SYSTEM$VORDEFINIERT
6
LTYP_1
62
1
10
9.900
20
7.667
30
0.0
11
9.750
21
7.517
31
0.0
0
LINE
8
VOM$SYSTEM$VORDEFINIERT
6
LTYP_1
62
1
10
10.024
20
7.650
30
0.0
11
9.750
21
7.376
31
0.0
0
LINE
8
VOM$SYSTEM$VORDEFINIERT
6
LTYP_1
62
1
10
10.100
20
7.585
30
0.0
11
10.015
21
7.500
31
0.0
0
LINE
8
VOM$SYSTEM$VORDEFINIERT
6
LTYP_1
62
1
10
9.900
20
7.385
30
0.0
11
9.750
21
7.235
31
0.0
0
LINE
8
VOM$SYSTEM$VORDEFINIERT
6
LTYP_1
62
1
10
9.900
20
7.243
30
0.0
11
9.750
21
7.093
31
0.0
0
LINE
8
VOM$SYSTEM$VORDEFINIERT
6
LTYP_1
62
1
10
9.900
20
7.102
30
0.0
11
9.798
21
7.000
31
0.0
0
ENDBLK
0
BLOCK
8
0
2
*X_SCHRAFFUR_8
70
65
10
0.0
20
0.0
30
0.0
3
*X
0
LINE
8
VOM$SYSTEM$VORDEFINIERT
6
LTYP_1
62
1
10
11.091
20
12.100
30
0.0
11
10.950
21
11.959
31
0.0
0
LINE
8
VOM$SYSTEM$VORDEFINIERT
6
LTYP_1
62
1
10
11.233
20
12.100
30
0.0
11
11.033
21
11.900
31
0.0
0
LINE
8
VOM$SYSTEM$VORDEFINIERT
6
LTYP_1
62
1
10
11.374
20
12.100
30
0.0
11
11.174
21
11.900
31
0.0
0
LINE
8
VOM$SYSTEM$VORDEFINIERT
6
LTYP_1
62
1
10
11.516
20
12.100
30
0.0
11
11.316
21
11.900
31
0.0
0
LINE
8
VOM$SYSTEM$VORDEFINIERT
6
LTYP_1
62
1
10
11.657
20
12.100
30
0.0
11
11.457
21
11.900
31
0.0
0
LINE
8
VOM$SYSTEM$VORDEFINIERT
6
LTYP_1
62
1
10
11.799
20
12.100
30
0.0
11
11.599
21
11.900
31
0.0
0
LINE
8
VOM$SYSTEM$VORDEFINIERT
6
LTYP_1
62
1
10
11.940
20
12.100
30
0.0
11
11.740
21
11.900
31
0.0
0
LINE
8
VOM$SYSTEM$VORDEFINIERT
6
LTYP_1
62
1
10
12.081
20
12.100
30
0.0
11
11.881
21
11.900
31
0.0
0
LINE
8
VOM$SYSTEM$VORDEFINIERT
6
LTYP_1
62
1
10
12.223
20
12.100
30
0.0
11
12.023
21
11.900
31
0.0
0
LINE
8
VOM$SYSTEM$VORDEFINIERT
6
LTYP_1
62
1
10
12.364
20
12.100
30
0.0
11
12.164
21
11.900
31
0.0
0
LINE
8
VOM$SYSTEM$VORDEFINIERT
6
LTYP_1
62
1
10
12.506
20
12.100
30
0.0
11
12.306
21
11.900
31
0.0
0
LINE
8
VOM$SYSTEM$VORDEFINIERT
6
LTYP_1
62
1
10
12.647
20
12.100
30
0.0
11
12.447
21
11.900
31
0.0
0
LINE
8
VOM$SYSTEM$VORDEFINIERT
6
LTYP_1
62
1
10
12.788
20
12.100
30
0.0
11
12.588
21
11.900
31
0.0
0
LINE
8
VOM$SYSTEM$VORDEFINIERT
6
LTYP_1
62
1
10
12.930
20
12.100
30
0.0
11
12.730
21
11.900
31
0.0
0
LINE
8
VOM$SYSTEM$VORDEFINIERT
6
LTYP_1
62
1
10
13.071
20
12.100
30
0.0
11
12.871
21
11.900
31
0.0
0
LINE
8
VOM$SYSTEM$VORDEFINIERT
6
LTYP_1
62
1
10
13.213
20
12.100
30
0.0
11
13.013
21
11.900
31
0.0
0
LINE
8
VOM$SYSTEM$VORDEFINIERT
6
LTYP_1
62
1
10
13.354
20
12.100
30
0.0
11
13.154
21
11.900
31
0.0
0
LINE
8
VOM$SYSTEM$VORDEFINIERT
6
LTYP_1
62
1
10
13.496
20
12.100
30
0.0
11
13.296
21
11.900
31
0.0
0
LINE
8
VOM$SYSTEM$VORDEFINIERT
6
LTYP_1
62
1
10
13.600
20
12.063
30
0.0
11
13.400
21
11.863
31
0.0
0
LINE
8
VOM$SYSTEM$VORDEFINIERT
6
LTYP_1
62
1
10
13.600
20
11.922
30
0.0
11
13.400
21
11.722
31
0.0
0
LINE
8
VOM$SYSTEM$VORDEFINIERT
6
LTYP_1
62
1
10
13.600
20
11.780
30
0.0
11
13.400
21
11.580
31
0.0
0
LINE
8
VOM$SYSTEM$VORDEFINIERT
6
LTYP_1
62
1
10
13.600
20
11.639
30
0.0
11
13.400
21
11.439
31
0.0
0
LINE
8
VOM$SYSTEM$VORDEFINIERT
6
LTYP_1
62
1
10
13.600
20
11.497
30
0.0
11
13.400
21
11.297
31
0.0
0
LINE
8
VOM$SYSTEM$VORDEFINIERT
6
LTYP_1
62
1
10
13.600
20
11.356
30
0.0
11
13.400
21
11.156
31
0.0
0
LINE
8
VOM$SYSTEM$VORDEFINIERT
6
LTYP_1
62
1
10
13.600
20
11.214
30
0.0
11
13.400
21
11.014
31
0.0
0
LINE
8
VOM$SYSTEM$VORDEFINIERT
6
LTYP_1
62
1
10
13.600
20
11.073
30
0.0
11
13.400
21
10.873
31
0.0
0
LINE
8
VOM$SYSTEM$VORDEFINIERT
6
LTYP_1
62
1
10
13.600
20
10.932
30
0.0
11
13.400
21
10.732
31
0.0
0
LINE
8
VOM$SYSTEM$VORDEFINIERT
6
LTYP_1
62
1
10
13.600
20
10.790
30
0.0
11
13.400
21
10.590
31
0.0
0
LINE
8
VOM$SYSTEM$VORDEFINIERT
6
LTYP_1
62
1
10
13.600
20
10.649
30
0.0
11
13.400
21
10.449
31
0.0
0
LINE
8
VOM$SYSTEM$VORDEFINIERT
6
LTYP_1
62
1
10
13.600
20
10.507
30
0.0
11
13.400
21
10.307
31
0.0
0
LINE
8
VOM$SYSTEM$VORDEFINIERT
6
LTYP_1
62
1
10
13.600
20
10.366
30
0.0
11
13.400
21
10.166
31
0.0
0
LINE
8
VOM$SYSTEM$VORDEFINIERT
6
LTYP_1
62
1
10
13.600
20
10.225
30
0.0
11
13.400
21
10.025
31
0.0
0
LINE
8
VOM$SYSTEM$VORDEFINIERT
6
LTYP_1
62
1
10
13.600
20
10.083
30
0.0
11
13.400
21
9.883
31
0.0
0
LINE
8
VOM$SYSTEM$VORDEFINIERT
6
LTYP_1
62
1
10
13.600
20
9.942
30
0.0
11
13.400
21
9.742
31
0.0
0
LINE
8
VOM$SYSTEM$VORDEFINIERT
6
LTYP_1
62
1
10
13.600
20
9.800
30
0.0
11
13.400
21
9.600
31
0.0
0
LINE
8
VOM$SYSTEM$VORDEFINIERT
6
LTYP_1
62
1
10
13.600
20
9.659
30
0.0
11
13.541
21
9.600
31
0.0
0
ENDBLK
0
BLOCK
8
0
2
*X_SCHRAFFUR_9
70
65
10
0.0
20
0.0
30
0.0
3
*X
0
LINE
8
VOM$SYSTEM$VORDEFINIERT
6
LTYP_1
62
1
10
12.191
20
6.300
30
0.0
11
12.050
21
6.159
31
0.0
0
LINE
8
VOM$SYSTEM$VORDEFINIERT
6
LTYP_1
62
1
10
12.333
20
6.300
30
0.0
11
12.133
21
6.100
31
0.0
0
LINE
8
VOM$SYSTEM$VORDEFINIERT
6
LTYP_1
62
1
10
12.474
20
6.300
30
0.0
11
12.274
21
6.100
31
0.0
0
LINE
8
VOM$SYSTEM$VORDEFINIERT
6
LTYP_1
62
1
10
12.616
20
6.300
30
0.0
11
12.300
21
5.984
31
0.0
0
LINE
8
VOM$SYSTEM$VORDEFINIERT
6
LTYP_1
62
1
10
12.757
20
6.300
30
0.0
11
12.557
21
6.100
31
0.0
0
LINE
8
VOM$SYSTEM$VORDEFINIERT
6
LTYP_1
62
1
10
12.500
20
6.043
30
0.0
11
12.300
21
5.843
31
0.0
0
LINE
8
VOM$SYSTEM$VORDEFINIERT
6
LTYP_1
62
1
10
12.899
20
6.300
30
0.0
11
12.699
21
6.100
31
0.0
0
LINE
8
VOM$SYSTEM$VORDEFINIERT
6
LTYP_1
62
1
10
12.500
20
5.901
30
0.0
11
12.399
21
5.800
31
0.0
0
LINE
8
VOM$SYSTEM$VORDEFINIERT
6
LTYP_1
62
1
10
13.040
20
6.300
30
0.0
11
12.840
21
6.100
31
0.0
0
LINE
8
VOM$SYSTEM$VORDEFINIERT
6
LTYP_1
62
1
10
13.181
20
6.300
30
0.0
11
12.981
21
6.100
31
0.0
0
LINE
8
VOM$SYSTEM$VORDEFINIERT
6
LTYP_1
62
1
10
13.523
20
6.500
30
0.0
11
13.400
21
6.377
31
0.0
0
LINE
8
VOM$SYSTEM$VORDEFINIERT
6
LTYP_1
62
1
10
13.323
20
6.300
30
0.0
11
13.123
21
6.100
31
0.0
0
LINE
8
VOM$SYSTEM$VORDEFINIERT
6
LTYP_1
62
1
10
13.600
20
6.436
30
0.0
11
13.264
21
6.100
31
0.0
0
LINE
8
VOM$SYSTEM$VORDEFINIERT
6
LTYP_1
62
1
10
13.600
20
6.294
30
0.0
11
13.406
21
6.100
31
0.0
0
LINE
8
VOM$SYSTEM$VORDEFINIERT
6
LTYP_1
62
1
10
13.600
20
6.153
30
0.0
11
13.547
21
6.100
31
0.0
0
ENDBLK
0
BLOCK
8
0
2
*X_SCHRAFFUR_10
70
65
10
0.0
20
0.0
30
0.0
3
*X
0
LINE
8
VOM$SYSTEM$VORDEFINIERT
6
LTYP_1
62
1
10
9.441
20
2.600
30
0.0
11
9.300
21
2.459
31
0.0
0
LINE
8
VOM$SYSTEM$VORDEFINIERT
6
LTYP_1
62
1
10
9.583
20
2.600
30
0.0
11
9.383
21
2.400
31
0.0
0
LINE
8
VOM$SYSTEM$VORDEFINIERT
6
LTYP_1
62
1
10
9.724
20
2.600
30
0.0
11
9.524
21
2.400
31
0.0
0
LINE
8
VOM$SYSTEM$VORDEFINIERT
6
LTYP_1
62
1
10
9.866
20
2.600
30
0.0
11
9.666
21
2.400
31
0.0
0
LINE
8
VOM$SYSTEM$VORDEFINIERT
6
LTYP_1
62
1
10
10.007
20
2.600
30
0.0
11
9.807
21
2.400
31
0.0
0
LINE
8
VOM$SYSTEM$VORDEFINIERT
6
LTYP_1
62
1
10
10.149
20
2.600
30
0.0
11
9.949
21
2.400
31
0.0
0
LINE
8
VOM$SYSTEM$VORDEFINIERT
6
LTYP_1
62
1
10
10.290
20
2.600
30
0.0
11
10.090
21
2.400
31
0.0
0
LINE
8
VOM$SYSTEM$VORDEFINIERT
6
LTYP_1
62
1
10
10.431
20
2.600
30
0.0
11
10.231
21
2.400
31
0.0
0
LINE
8
VOM$SYSTEM$VORDEFINIERT
6
LTYP_1
62
1
10
10.573
20
2.600
30
0.0
11
10.373
21
2.400
31
0.0
0
LINE
8
VOM$SYSTEM$VORDEFINIERT
6
LTYP_1
62
1
10
10.714
20
2.600
30
0.0
11
10.514
21
2.400
31
0.0
0
LINE
8
VOM$SYSTEM$VORDEFINIERT
6
LTYP_1
62
1
10
10.856
20
2.600
30
0.0
11
10.656
21
2.400
31
0.0
0
LINE
8
VOM$SYSTEM$VORDEFINIERT
6
LTYP_1
62
1
10
10.997
20
2.600
30
0.0
11
10.797
21
2.400
31
0.0
0
LINE
8
VOM$SYSTEM$VORDEFINIERT
6
LTYP_1
62
1
10
11.138
20
2.600
30
0.0
11
10.938
21
2.400
31
0.0
0
LINE
8
VOM$SYSTEM$VORDEFINIERT
6
LTYP_1
62
1
10
11.280
20
2.600
30
0.0
11
11.080
21
2.400
31
0.0
0
LINE
8
VOM$SYSTEM$VORDEFINIERT
6
LTYP_1
62
1
10
11.421
20
2.600
30
0.0
11
11.221
21
2.400
31
0.0
0
LINE
8
VOM$SYSTEM$VORDEFINIERT
6
LTYP_1
62
1
10
11.563
20
2.600
30
0.0
11
11.363
21
2.400
31
0.0
0
LINE
8
VOM$SYSTEM$VORDEFINIERT
6
LTYP_1
62
1
10
12.304
20
3.200
30
0.0
11
12.300
21
3.196
31
0.0
0
LINE
8
VOM$SYSTEM$VORDEFINIERT
6
LTYP_1
62
1
10
11.704
20
2.600
30
0.0
11
11.504
21
2.400
31
0.0
0
LINE
8
VOM$SYSTEM$VORDEFINIERT
6
LTYP_1
62
1
10
12.446
20
3.200
30
0.0
11
12.300
21
3.054
31
0.0
0
LINE
8
VOM$SYSTEM$VORDEFINIERT
6
LTYP_1
62
1
10
11.846
20
2.600
30
0.0
11
11.646
21
2.400
31
0.0
0
LINE
8
VOM$SYSTEM$VORDEFINIERT
6
LTYP_1
62
1
10
12.500
20
3.113
30
0.0
11
12.300
21
2.913
31
0.0
0
LINE
8
VOM$SYSTEM$VORDEFINIERT
6
LTYP_1
62
1
10
11.987
20
2.600
30
0.0
11
11.787
21
2.400
31
0.0
0
LINE
8
VOM$SYSTEM$VORDEFINIERT
6
LTYP_1
62
1
10
12.500
20
2.972
30
0.0
11
12.300
21
2.772
31
0.0
0
LINE
8
VOM$SYSTEM$VORDEFINIERT
6
LTYP_1
62
1
10
12.128
20
2.600
30
0.0
11
11.928
21
2.400
31
0.0
0
LINE
8
VOM$SYSTEM$VORDEFINIERT
6
LTYP_1
62
1
10
12.500
20
2.830
30
0.0
11
12.300
21
2.630
31
0.0
0
LINE
8
VOM$SYSTEM$VORDEFINIERT
6
LTYP_1
62
1
10
12.270
20
2.600
30
0.0
11
12.070
21
2.400
31
0.0
0
LINE
8
VOM$SYSTEM$VORDEFINIERT
6
LTYP_1
62
1
10
12.500
20
2.689
30
0.0
11
12.211
21
2.400
31
0.0
0
LINE
8
VOM$SYSTEM$VORDEFINIERT
6
LTYP_1
62
1
10
12.500
20
2.547
30
0.0
11
12.353
21
2.400
31
0.0
0
LINE
8
VOM$SYSTEM$VORDEFINIERT
6
LTYP_1
62
1
10
12.500
20
2.406
30
0.0
11
12.494
21
2.400
31
0.0
0
ENDBLK
0
BLOCK
8
0
2
*X_SCHRAFFUR_11
70
65
10
0.0
20
0.0
30
0.0
3
*X
0
LINE
8
VOM$SYSTEM$VORDEFINIERT
6
LTYP_1
62
1
10
6.041
20
2.600
30
0.0
11
5.900
21
2.459
31
0.0
0
LINE
8
VOM$SYSTEM$VORDEFINIERT
6
LTYP_1
62
1
10
6.183
20
2.600
30
0.0
11
5.983
21
2.400
31
0.0
0
LINE
8
VOM$SYSTEM$VORDEFINIERT
6
LTYP_1
62
1
10
6.324
20
2.600
30
0.0
11
6.124
21
2.400
31
0.0
0
LINE
8
VOM$SYSTEM$VORDEFINIERT
6
LTYP_1
62
1
10
6.466
20
2.600
30
0.0
11
6.266
21
2.400
31
0.0
0
LINE
8
VOM$SYSTEM$VORDEFINIERT
6
LTYP_1
62
1
10
6.607
20
2.600
30
0.0
11
6.407
21
2.400
31
0.0
0
LINE
8
VOM$SYSTEM$VORDEFINIERT
6
LTYP_1
62
1
10
6.749
20
2.600
30
0.0
11
6.549
21
2.400
31
0.0
0
LINE
8
VOM$SYSTEM$VORDEFINIERT
6
LTYP_1
62
1
10
6.890
20
2.600
30
0.0
11
6.690
21
2.400
31
0.0
0
LINE
8
VOM$SYSTEM$VORDEFINIERT
6
LTYP_1
62
1
10
7.031
20
2.600
30
0.0
11
6.831
21
2.400
31
0.0
0
LINE
8
VOM$SYSTEM$VORDEFINIERT
6
LTYP_1
62
1
10
7.173
20
2.600
30
0.0
11
6.973
21
2.400
31
0.0
0
LINE
8
VOM$SYSTEM$VORDEFINIERT
6
LTYP_1
62
1
10
7.314
20
2.600
30
0.0
11
7.114
21
2.400
31
0.0
0
LINE
8
VOM$SYSTEM$VORDEFINIERT
6
LTYP_1
62
1
10
7.456
20
2.600
30
0.0
11
7.256
21
2.400
31
0.0
0
LINE
8
VOM$SYSTEM$VORDEFINIERT
6
LTYP_1
62
1
10
7.597
20
2.600
30
0.0
11
7.397
21
2.400
31
0.0
0
LINE
8
VOM$SYSTEM$VORDEFINIERT
6
LTYP_1
62
1
10
7.738
20
2.600
30
0.0
11
7.538
21
2.400
31
0.0
0
LINE
8
VOM$SYSTEM$VORDEFINIERT
6
LTYP_1
62
1
10
7.880
20
2.600
30
0.0
11
7.680
21
2.400
31
0.0
0
LINE
8
VOM$SYSTEM$VORDEFINIERT
6
LTYP_1
62
1
10
7.900
20
2.479
30
0.0
11
7.821
21
2.400
31
0.0
0
ENDBLK
0
BLOCK
8
0
2
*X_SCHRAFFUR_12
70
65
10
0.0
20
0.0
30
0.0
3
*X
0
LINE
8
VOM$SYSTEM$VORDEFINIERT
6
LTYP_1
62
1
10
12.441
20
4.750
30
0.0
11
12.300
21
4.609
31
0.0
0
LINE
8
VOM$SYSTEM$VORDEFINIERT
6
LTYP_1
62
1
10
12.500
20
4.667
30
0.0
11
12.300
21
4.467
31
0.0
0
LINE
8
VOM$SYSTEM$VORDEFINIERT
6
LTYP_1
62
1
10
12.500
20
4.526
30
0.0
11
12.300
21
4.326
31
0.0
0
LINE
8
VOM$SYSTEM$VORDEFINIERT
6
LTYP_1
62
1
10
12.500
20
4.384
30
0.0
11
12.316
21
4.200
31
0.0
0
LINE
8
VOM$SYSTEM$VORDEFINIERT
6
LTYP_1
62
1
10
12.500
20
4.243
30
0.0
11
12.457
21
4.200
31
0.0
0
ENDBLK
0
BLOCK
8
0
2
*X_SCHRAFFUR_13
70
65
10
0.0
20
0.0
30
0.0
3
*X
0
LINE
8
VOM$SYSTEM$VORDEFINIERT
6
LTYP_1
62
1
10
5.341
20
12.100
30
0.0
11
5.200
21
11.959
31
0.0
0
LINE
8
VOM$SYSTEM$VORDEFINIERT
6
LTYP_1
62
1
10
5.483
20
12.100
30
0.0
11
5.283
21
11.900
31
0.0
0
LINE
8
VOM$SYSTEM$VORDEFINIERT
6
LTYP_1
62
1
10
5.624
20
12.100
30
0.0
11
5.424
21
11.900
31
0.0
0
LINE
8
VOM$SYSTEM$VORDEFINIERT
6
LTYP_1
62
1
10
5.700
20
12.034
30
0.0
11
5.566
21
11.900
31
0.0
0
ENDBLK
0
ENDSEC
0
SECTION
2
ENTITIES
0
INSERT
8
VOM$SYSTEM$VORDEFINIERT
2
*X_SCHRAFFUR_1
10
0.0
20
0.0
30
0.0
0
INSERT
8
VOM$SYSTEM$VORDEFINIERT
2
*X_SCHRAFFUR_2
10
0.0
20
0.0
30
0.0
0
INSERT
8
VOM$SYSTEM$VORDEFINIERT
2
*X_SCHRAFFUR_3
10
0.0
20
0.0
30
0.0
0
INSERT
8
VOM$SYSTEM$VORDEFINIERT
2
*X_SCHRAFFUR_4
10
0.0
20
0.0
30
0.0
0
INSERT
8
VOM$SYSTEM$VORDEFINIERT
2
*X_SCHRAFFUR_5
10
0.0
20
0.0
30
0.0
0
INSERT
8
VOM$SYSTEM$VORDEFINIERT
2
*X_SCHRAFFUR_6
10
0.0
20
0.0
30
0.0
0
INSERT
8
VOM$SYSTEM$VORDEFINIERT
2
*X_SCHRAFFUR_7
10
0.0
20
0.0
30
0.0
0
INSERT
8
VOM$SYSTEM$VORDEFINIERT
2
*X_SCHRAFFUR_8
10
0.0
20
0.0
30
0.0
0
INSERT
8
VOM$SYSTEM$VORDEFINIERT
2
*X_SCHRAFFUR_9
10
0.0
20
0.0
30
0.0
0
INSERT
8
VOM$SYSTEM$VORDEFINIERT
2
*X_SCHRAFFUR_10
10
0.0
20
0.0
30
0.0
0
INSERT
8
VOM$SYSTEM$VORDEFINIERT
2
*X_SCHRAFFUR_11
10
0.0
20
0.0
30
0.0
0
INSERT
8
VOM$SYSTEM$VORDEFINIERT
2
*X_SCHRAFFUR_12
10
0.0
20
0.0
30
0.0
0
INSERT
8
VOM$SYSTEM$VORDEFINIERT
2
*X_SCHRAFFUR_13
10
0.0
20
0.0
30
0.0
0
LINE
8
VOM$SYSTEM$VORDEFINIERT
6
LTYP_1
62
3
10
2.400
20
12.100
30
0.0
11
2.400
21
11.250
31
0.0
0
LINE
8
VOM$SYSTEM$VORDEFINIERT
6
LTYP_1
62
3
10
2.400
20
11.250
30
0.0
11
2.600
21
11.250
31
0.0
0
LINE
8
VOM$SYSTEM$VORDEFINIERT
6
LTYP_1
62
3
10
2.600
20
11.250
30
0.0
11
2.600
21
11.900
31
0.0
0
LINE
8
VOM$SYSTEM$VORDEFINIERT
6
LTYP_1
62
3
10
2.600
20
11.900
30
0.0
11
4.200
21
11.900
31
0.0
0
LINE
8
VOM$SYSTEM$VORDEFINIERT
6
LTYP_1
62
3
10
4.200
20
11.900
30
0.0
11
4.200
21
12.100
31
0.0
0
LINE
8
VOM$SYSTEM$VORDEFINIERT
6
LTYP_1
62
3
10
4.200
20
12.100
30
0.0
11
2.400
21
12.100
31
0.0
0
LINE
8
VOM$SYSTEM$VORDEFINIERT
6
LTYP_1
62
3
10
2.400
20
10.100
30
0.0
11
2.400
21
8.500
31
0.0
0
LINE
8
VOM$SYSTEM$VORDEFINIERT
6
LTYP_1
62
3
10
2.400
20
8.500
30
0.0
11
2.600
21
8.500
31
0.0
0
LINE
8
VOM$SYSTEM$VORDEFINIERT
6
LTYP_1
62
3
10
2.600
20
8.500
30
0.0
11
2.600
21
9.500
31
0.0
0
LINE
8
VOM$SYSTEM$VORDEFINIERT
6
LTYP_1
62
3
10
2.600
20
9.500
30
0.0
11
5.500
21
9.500
31
0.0
0
LINE
8
VOM$SYSTEM$VORDEFINIERT
6
LTYP_1
62
3
10
5.500
20
9.500
30
0.0
11
5.500
21
8.650
31
0.0
0
LINE
8
VOM$SYSTEM$VORDEFINIERT
6
LTYP_1
62
3
10
5.500
20
8.650
30
0.0
11
5.650
21
8.650
31
0.0
0
LINE
8
VOM$SYSTEM$VORDEFINIERT
6
LTYP_1
62
3
10
5.650
20
8.650
30
0.0
11
5.650
21
9.500
31
0.0
0
LINE
8
VOM$SYSTEM$VORDEFINIERT
6
LTYP_1
62
3
10
5.650
20
9.500
30
0.0
11
5.850
21
9.500
31
0.0
0
LINE
8
VOM$SYSTEM$VORDEFINIERT
6
LTYP_1
62
3
10
5.850
20
9.500
30
0.0
11
5.850
21
9.650
31
0.0
0
LINE
8
VOM$SYSTEM$VORDEFINIERT
6
LTYP_1
62
3
10
5.850
20
9.650
30
0.0
11
2.600
21
9.650
31
0.0
0
LINE
8
VOM$SYSTEM$VORDEFINIERT
6
LTYP_1
62
3
10
2.600
20
9.650
30
0.0
11
2.600
21
10.100
31
0.0
0
LINE
8
VOM$SYSTEM$VORDEFINIERT
6
LTYP_1
62
3
10
2.600
20
10.100
30
0.0
11
2.400
21
10.100
31
0.0
0
LINE
8
VOM$SYSTEM$VORDEFINIERT
6
LTYP_1
62
1
10
2.400
20
11.250
30
0.0
11
2.400
21
10.100
31
0.0
0
LINE
8
VOM$SYSTEM$VORDEFINIERT
6
LTYP_1
62
1
10
2.600
20
11.250
30
0.0
11
2.600
21
10.100
31
0.0
0
LINE
8
VOM$SYSTEM$VORDEFINIERT
6
LTYP_1
62
3
10
5.500
20
7.900
30
0.0
11
5.500
21
6.800
31
0.0
0
LINE
8
VOM$SYSTEM$VORDEFINIERT
6
LTYP_1
62
3
10
5.500
20
6.800
30
0.0
11
2.600
21
6.800
31
0.0
0
LINE
8
VOM$SYSTEM$VORDEFINIERT
6
LTYP_1
62
3
10
2.600
20
6.800
30
0.0
11
2.600
21
7.450
31
0.0
0
LINE
8
VOM$SYSTEM$VORDEFINIERT
6
LTYP_1
62
3
10
2.600
20
7.450
30
0.0
11
2.400
21
7.450
31
0.0
0
LINE
8
VOM$SYSTEM$VORDEFINIERT
6
LTYP_1
62
3
10
2.400
20
7.450
30
0.0
11
2.400
21
5.200
31
0.0
0
LINE
8
VOM$SYSTEM$VORDEFINIERT
6
LTYP_1
62
3
10
2.400
20
5.200
30
0.0
11
2.600
21
5.200
31
0.0
0
LINE
8
VOM$SYSTEM$VORDEFINIERT
6
LTYP_1
62
3
10
2.600
20
5.200
30
0.0
11
2.600
21
6.650
31
0.0
0
LINE
8
VOM$SYSTEM$VORDEFINIERT
6
LTYP_1
62
3
10
2.600
20
6.650
30
0.0
11
5.650
21
6.650
31
0.0
0
LINE
8
VOM$SYSTEM$VORDEFINIERT
6
LTYP_1
62
3
10
5.650
20
6.650
30
0.0
11
5.650
21
7.900
31
0.0
0
LINE
8
VOM$SYSTEM$VORDEFINIERT
6
LTYP_1
62
3
10
5.650
20
7.900
30
0.0
11
5.500
21
7.900
31
0.0
0
LINE
8
VOM$SYSTEM$VORDEFINIERT
6
LTYP_1
62
1
10
2.400
20
8.500
30
0.0
11
2.400
21
7.450
31
0.0
0
LINE
8
VOM$SYSTEM$VORDEFINIERT
6
LTYP_1
62
1
10
2.600
20
8.500
30
0.0
11
2.600
21
7.450
31
0.0
0
LINE
8
VOM$SYSTEM$VORDEFINIERT
6
LTYP_1
62
1
10
2.400
20
5.200
30
0.0
11
2.400
21
3.250
31
0.0
0
LINE
8
VOM$SYSTEM$VORDEFINIERT
6
LTYP_1
62
1
10
2.600
20
5.200
30
0.0
11
2.600
21
3.250
31
0.0
0
LINE
8
VOM$SYSTEM$VORDEFINIERT
6
LTYP_1
62
1
10
4.200
20
12.100
30
0.0
11
6.650
21
12.100
31
0.0
0
LINE
8
VOM$SYSTEM$VORDEFINIERT
6
LTYP_1
62
1
10
4.200
20
11.900
30
0.0
11
6.650
21
11.900
31
0.0
0
LINE
8
VOM$SYSTEM$VORDEFINIERT
6
LTYP_1
62
1
10
5.850
20
9.650
30
0.0
11
6.650
21
9.650
31
0.0
0
LINE
8
VOM$SYSTEM$VORDEFINIERT
6
LTYP_1
62
1
10
5.850
20
9.500
30
0.0
11
6.650
21
9.500
31
0.0
0
LINE
8
VOM$SYSTEM$VORDEFINIERT
6
LTYP_1
62
1
10
5.500
20
8.650
30
0.0
11
5.500
21
7.900
31
0.0
0
LINE
8
VOM$SYSTEM$VORDEFINIERT
6
LTYP_1
62
1
10
5.650
20
8.650
30
0.0
11
5.650
21
7.900
31
0.0
0
LINE
8
VOM$SYSTEM$VORDEFINIERT
6
LTYP_1
62
1
10
7.850
20
12.100
30
0.0
11
9.100
21
12.100
31
0.0
0
LINE
8
VOM$SYSTEM$VORDEFINIERT
6
LTYP_1
62
1
10
7.850
20
11.900
30
0.0
11
9.100
21
11.900
31
0.0
0
LINE
8
VOM$SYSTEM$VORDEFINIERT
6
LTYP_1
62
1
10
8.800
20
8.350
30
0.0
11
9.500
21
8.350
31
0.0
0
LINE
8
VOM$SYSTEM$VORDEFINIERT
6
LTYP_1
62
1
10
8.800
20
8.200
30
0.0
11
9.500
21
8.200
31
0.0
0
LINE
8
VOM$SYSTEM$VORDEFINIERT
6
LTYP_1
62
3
10
13.400
20
8.350
30
0.0
11
13.400
21
7.650
31
0.0
0
LINE
8
VOM$SYSTEM$VORDEFINIERT
6
LTYP_1
62
3
10
13.400
20
7.650
30
0.0
11
10.800
21
7.650
31
0.0
0
LINE
8
VOM$SYSTEM$VORDEFINIERT
6
LTYP_1
62
3
10
10.800
20
7.650
30
0.0
11
10.800
21
7.500
31
0.0
0
LINE
8
VOM$SYSTEM$VORDEFINIERT
6
LTYP_1
62
3
10
10.800
20
7.500
30
0.0
11
11.000
21
7.500
31
0.0
0
LINE
8
VOM$SYSTEM$VORDEFINIERT
6
LTYP_1
62
3
10
11.000
20
7.500
30
0.0
11
11.000
21
6.100
31
0.0
0
LINE
8
VOM$SYSTEM$VORDEFINIERT
6
LTYP_1
62
3
10
11.000
20
6.100
30
0.0
11
11.400
21
6.100
31
0.0
0
LINE
8
VOM$SYSTEM$VORDEFINIERT
6
LTYP_1
62
3
10
11.400
20
6.100
30
0.0
11
11.400
21
6.300
31
0.0
0
LINE
8
VOM$SYSTEM$VORDEFINIERT
6
LTYP_1
62
3
10
11.400
20
6.300
30
0.0
11
11.150
21
6.300
31
0.0
0
LINE
8
VOM$SYSTEM$VORDEFINIERT
6
LTYP_1
62
3
10
11.150
20
6.300
30
0.0
11
11.150
21
7.500
31
0.0
0
LINE
8
VOM$SYSTEM$VORDEFINIERT
6
LTYP_1
62
3
10
11.150
20
7.500
30
0.0
11
13.400
21
7.500
31
0.0
0
LINE
8
VOM$SYSTEM$VORDEFINIERT
6
LTYP_1
62
3
10
13.400
20
7.500
30
0.0
11
13.400
21
7.300
31
0.0
0
LINE
8
VOM$SYSTEM$VORDEFINIERT
6
LTYP_1
62
3
10
13.400
20
7.300
30
0.0
11
13.600
21
7.300
31
0.0
0
LINE
8
VOM$SYSTEM$VORDEFINIERT
6
LTYP_1
62
3
10
13.600
20
7.300
30
0.0
11
13.600
21
8.350
31
0.0
0
LINE
8
VOM$SYSTEM$VORDEFINIERT
6
LTYP_1
62
3
10
13.600
20
8.350
30
0.0
11
13.400
21
8.350
31
0.0
0
LINE
8
VOM$SYSTEM$VORDEFINIERT
6
LTYP_1
62
1
10
10.100
20
7.650
30
0.0
11
10.800
21
7.650
31
0.0
0
LINE
8
VOM$SYSTEM$VORDEFINIERT
6
LTYP_1
62
1
10
10.100
20
7.500
30
0.0
11
10.800
21
7.500
31
0.0
0
LINE
8
VOM$SYSTEM$VORDEFINIERT
6
LTYP_1
62
1
10
13.400
20
9.600
30
0.0
11
13.400
21
8.350
31
0.0
0
LINE
8
VOM$SYSTEM$VORDEFINIERT
6
LTYP_1
62
1
10
13.600
20
9.600
30
0.0
11
13.600
21
8.350
31
0.0
0
LINE
8
VOM$SYSTEM$VORDEFINIERT
6
LTYP_1
62
1
10
13.600
20
7.300
30
0.0
11
13.600
21
6.500
31
0.0
0
LINE
8
VOM$SYSTEM$VORDEFINIERT
6
LTYP_1
62
1
10
13.400
20
7.300
30
0.0
11
13.400
21
6.500
31
0.0
0
LINE
8
VOM$SYSTEM$VORDEFINIERT
6
LTYP_1
62
1
10
11.400
20
6.300
30
0.0
11
12.050
21
6.300
31
0.0
0
LINE
8
VOM$SYSTEM$VORDEFINIERT
6
LTYP_1
62
1
10
11.400
20
6.100
30
0.0
11
12.050
21
6.100
31
0.0
0
LINE
8
VOM$SYSTEM$VORDEFINIERT
6
LTYP_1
62
1
10
10.000
20
12.100
30
0.0
11
10.950
21
12.100
31
0.0
0
LINE
8
VOM$SYSTEM$VORDEFINIERT
6
LTYP_1
62
1
10
10.000
20
11.900
30
0.0
11
10.950
21
11.900
31
0.0
0
LINE
8
VOM$SYSTEM$VORDEFINIERT
6
LTYP_1
62
1
10
3.250
20
2.600
30
0.0
11
5.900
21
2.600
31
0.0
0
LINE
8
VOM$SYSTEM$VORDEFINIERT
6
LTYP_1
62
1
10
3.250
20
2.400
30
0.0
11
5.900
21
2.400
31
0.0
0
LINE
8
VOM$SYSTEM$VORDEFINIERT
6
LTYP_1
62
1
10
7.900
20
2.600
30
0.0
11
9.300
21
2.600
31
0.0
0
LINE
8
VOM$SYSTEM$VORDEFINIERT
6
LTYP_1
62
1
10
7.900
20
2.400
30
0.0
11
9.300
21
2.400
31
0.0
0
LINE
8
VOM$SYSTEM$VORDEFINIERT
6
LTYP_1
62
1
10
12.300
20
5.800
30
0.0
11
12.300
21
4.750
31
0.0
0
LINE
8
VOM$SYSTEM$VORDEFINIERT
6
LTYP_1
62
1
10
12.500
20
5.800
30
0.0
11
12.500
21
4.750
31
0.0
0
LINE
8
VOM$SYSTEM$VORDEFINIERT
6
LTYP_1
62
1
10
12.300
20
4.200
30
0.0
11
12.300
21
3.200
31
0.0
0
LINE
8
VOM$SYSTEM$VORDEFINIERT
6
LTYP_1
62
1
10
12.500
20
4.200
30
0.0
11
12.500
21
3.200
31
0.0
0
LINE
8
VOM$SYSTEM$VORDEFINIERT
6
LTYP_1
62
3
10
2.400
20
3.250
30
0.0
11
2.400
21
2.400
31
0.0
0
LINE
8
VOM$SYSTEM$VORDEFINIERT
6
LTYP_1
62
3
10
2.400
20
2.400
30
0.0
11
3.250
21
2.400
31
0.0
0
LINE
8
VOM$SYSTEM$VORDEFINIERT
6
LTYP_1
62
3
10
3.250
20
2.400
30
0.0
11
3.250
21
2.600
31
0.0
0
LINE
8
VOM$SYSTEM$VORDEFINIERT
6
LTYP_1
62
3
10
3.250
20
2.600
30
0.0
11
2.600
21
2.600
31
0.0
0
LINE
8
VOM$SYSTEM$VORDEFINIERT
6
LTYP_1
62
3
10
2.600
20
2.600
30
0.0
11
2.600
21
3.250
31
0.0
0
LINE
8
VOM$SYSTEM$VORDEFINIERT
6
LTYP_1
62
3
10
2.600
20
3.250
30
0.0
11
2.400
21
3.250
31
0.0
0
LINE
8
VOM$SYSTEM$VORDEFINIERT
6
LTYP_1
62
3
10
6.650
20
12.100
30
0.0
11
6.650
21
11.900
31
0.0
0
LINE
8
VOM$SYSTEM$VORDEFINIERT
6
LTYP_1
62
3
10
6.650
20
11.900
30
0.0
11
7.100
21
11.900
31
0.0
0
LINE
8
VOM$SYSTEM$VORDEFINIERT
6
LTYP_1
62
3
10
7.100
20
11.900
30
0.0
11
7.100
21
9.650
31
0.0
0
LINE
8
VOM$SYSTEM$VORDEFINIERT
6
LTYP_1
62
3
10
7.100
20
9.650
30
0.0
11
6.650
21
9.650
31
0.0
0
LINE
8
VOM$SYSTEM$VORDEFINIERT
6
LTYP_1
62
3
10
6.650
20
9.650
30
0.0
11
6.650
21
9.500
31
0.0
0
LINE
8
VOM$SYSTEM$VORDEFINIERT
6
LTYP_1
62
3
10
6.650
20
9.500
30
0.0
11
7.100
21
9.500
31
0.0
0
LINE
8
VOM$SYSTEM$VORDEFINIERT
6
LTYP_1
62
3
10
7.100
20
9.500
30
0.0
11
7.100
21
7.100
31
0.0
0
LINE
8
VOM$SYSTEM$VORDEFINIERT
6
LTYP_1
62
3
10
7.100
20
7.100
30
0.0
11
7.250
21
7.100
31
0.0
0
LINE
8
VOM$SYSTEM$VORDEFINIERT
6
LTYP_1
62
3
10
7.250
20
7.100
30
0.0
11
7.250
21
8.200
31
0.0
0
LINE
8
VOM$SYSTEM$VORDEFINIERT
6
LTYP_1
62
3
10
7.250
20
8.200
30
0.0
11
8.800
21
8.200
31
0.0
0
LINE
8
VOM$SYSTEM$VORDEFINIERT
6
LTYP_1
62
3
10
8.800
20
8.200
30
0.0
11
8.800
21
8.350
31
0.0
0
LINE
8
VOM$SYSTEM$VORDEFINIERT
6
LTYP_1
62
3
10
8.800
20
8.350
30
0.0
11
7.250
21
8.350
31
0.0
0
LINE
8
VOM$SYSTEM$VORDEFINIERT
6
LTYP_1
62
3
10
7.250
20
8.350
30
0.0
11
7.250
21
11.900
31
0.0
0
LINE
8
VOM$SYSTEM$VORDEFINIERT
6
LTYP_1
62
3
10
7.250
20
11.900
30
0.0
11
7.850
21
11.900
31
0.0
0
LINE
8
VOM$SYSTEM$VORDEFINIERT
6
LTYP_1
62
3
10
7.850
20
11.900
30
0.0
11
7.850
21
12.100
31
0.0
0
LINE
8
VOM$SYSTEM$VORDEFINIERT
6
LTYP_1
62
3
10
7.850
20
12.100
30
0.0
11
6.650
21
12.100
31
0.0
0
LINE
8
VOM$SYSTEM$VORDEFINIERT
6
LTYP_1
62
3
10
9.100
20
12.100
30
0.0
11
9.100
21
11.900
31
0.0
0
LINE
8
VOM$SYSTEM$VORDEFINIERT
6
LTYP_1
62
3
10
9.100
20
11.900
30
0.0
11
9.750
21
11.900
31
0.0
0
LINE
8
VOM$SYSTEM$VORDEFINIERT
6
LTYP_1
62
3
10
9.750
20
11.900
30
0.0
11
9.750
21
8.350
31
0.0
0
LINE
8
VOM$SYSTEM$VORDEFINIERT
6
LTYP_1
62
3
10
9.750
20
8.350
30
0.0
11
9.500
21
8.350
31
0.0
0
LINE
8
VOM$SYSTEM$VORDEFINIERT
6
LTYP_1
62
3
10
9.500
20
8.350
30
0.0
11
9.500
21
8.200
31
0.0
0
LINE
8
VOM$SYSTEM$VORDEFINIERT
6
LTYP_1
62
3
10
9.500
20
8.200
30
0.0
11
9.750
21
8.200
31
0.0
0
LINE
8
VOM$SYSTEM$VORDEFINIERT
6
LTYP_1
62
3
10
9.750
20
8.200
30
0.0
11
9.750
21
7.000
31
0.0
0
LINE
8
VOM$SYSTEM$VORDEFINIERT
6
LTYP_1
62
3
10
9.750
20
7.000
30
0.0
11
9.900
21
7.000
31
0.0
0
LINE
8
VOM$SYSTEM$VORDEFINIERT
6
LTYP_1
62
3
10
9.900
20
7.000
30
0.0
11
9.900
21
7.500
31
0.0
0
LINE
8
VOM$SYSTEM$VORDEFINIERT
6
LTYP_1
62
3
10
9.900
20
7.500
30
0.0
11
10.100
21
7.500
31
0.0
0
LINE
8
VOM$SYSTEM$VORDEFINIERT
6
LTYP_1
62
3
10
10.100
20
7.500
30
0.0
11
10.100
21
7.650
31
0.0
0
LINE
8
VOM$SYSTEM$VORDEFINIERT
6
LTYP_1
62
3
10
10.100
20
7.650
30
0.0
11
9.900
21
7.650
31
0.0
0
LINE
8
VOM$SYSTEM$VORDEFINIERT
6
LTYP_1
62
3
10
9.900
20
7.650
30
0.0
11
9.900
21
11.900
31
0.0
0
LINE
8
VOM$SYSTEM$VORDEFINIERT
6
LTYP_1
62
3
10
9.900
20
11.900
30
0.0
11
10.000
21
11.900
31
0.0
0
LINE
8
VOM$SYSTEM$VORDEFINIERT
6
LTYP_1
62
3
10
10.000
20
11.900
30
0.0
11
10.000
21
12.100
31
0.0
0
LINE
8
VOM$SYSTEM$VORDEFINIERT
6
LTYP_1
62
3
10
10.000
20
12.100
30
0.0
11
9.100
21
12.100
31
0.0
0
LINE
8
VOM$SYSTEM$VORDEFINIERT
6
LTYP_1
62
3
10
10.950
20
12.100
30
0.0
11
10.950
21
11.900
31
0.0
0
LINE
8
VOM$SYSTEM$VORDEFINIERT
6
LTYP_1
62
3
10
10.950
20
11.900
30
0.0
11
13.400
21
11.900
31
0.0
0
LINE
8
VOM$SYSTEM$VORDEFINIERT
6
LTYP_1
62
3
10
13.400
20
11.900
30
0.0
11
13.400
21
9.600
31
0.0
0
LINE
8
VOM$SYSTEM$VORDEFINIERT
6
LTYP_1
62
3
10
13.400
20
9.600
30
0.0
11
13.600
21
9.600
31
0.0
0
LINE
8
VOM$SYSTEM$VORDEFINIERT
6
LTYP_1
62
3
10
13.600
20
9.600
30
0.0
11
13.600
21
12.100
31
0.0
0
LINE
8
VOM$SYSTEM$VORDEFINIERT
6
LTYP_1
62
3
10
13.600
20
12.100
30
0.0
11
10.950
21
12.100
31
0.0
0
LINE
8
VOM$SYSTEM$VORDEFINIERT
6
LTYP_1
62
3
10
13.400
20
6.500
30
0.0
11
13.400
21
6.300
31
0.0
0
LINE
8
VOM$SYSTEM$VORDEFINIERT
6
LTYP_1
62
3
10
13.400
20
6.300
30
0.0
11
12.050
21
6.300
31
0.0
0
LINE
8
VOM$SYSTEM$VORDEFINIERT
6
LTYP_1
62
3
10
12.050
20
6.300
30
0.0
11
12.050
21
6.100
31
0.0
0
LINE
8
VOM$SYSTEM$VORDEFINIERT
6
LTYP_1
62
3
10
12.050
20
6.100
30
0.0
11
12.300
21
6.100
31
0.0
0
LINE
8
VOM$SYSTEM$VORDEFINIERT
6
LTYP_1
62
3
10
12.300
20
6.100
30
0.0
11
12.300
21
5.800
31
0.0
0
LINE
8
VOM$SYSTEM$VORDEFINIERT
6
LTYP_1
62
3
10
12.300
20
5.800
30
0.0
11
12.500
21
5.800
31
0.0
0
LINE
8
VOM$SYSTEM$VORDEFINIERT
6
LTYP_1
62
3
10
12.500
20
5.800
30
0.0
11
12.500
21
6.100
31
0.0
0
LINE
8
VOM$SYSTEM$VORDEFINIERT
6
LTYP_1
62
3
10
12.500
20
6.100
30
0.0
11
13.600
21
6.100
31
0.0
0
LINE
8
VOM$SYSTEM$VORDEFINIERT
6
LTYP_1
62
3
10
13.600
20
6.100
30
0.0
11
13.600
21
6.500
31
0.0
0
LINE
8
VOM$SYSTEM$VORDEFINIERT
6
LTYP_1
62
3
10
13.600
20
6.500
30
0.0
11
13.400
21
6.500
31
0.0
0
LINE
8
VOM$SYSTEM$VORDEFINIERT
6
LTYP_1
62
3
10
12.300
20
3.200
30
0.0
11
12.300
21
2.600
31
0.0
0
LINE
8
VOM$SYSTEM$VORDEFINIERT
6
LTYP_1
62
3
10
12.300
20
2.600
30
0.0
11
9.300
21
2.600
31
0.0
0
LINE
8
VOM$SYSTEM$VORDEFINIERT
6
LTYP_1
62
3
10
9.300
20
2.600
30
0.0
11
9.300
21
2.400
31
0.0
0
LINE
8
VOM$SYSTEM$VORDEFINIERT
6
LTYP_1
62
3
10
9.300
20
2.400
30
0.0
11
12.500
21
2.400
31
0.0
0
LINE
8
VOM$SYSTEM$VORDEFINIERT
6
LTYP_1
62
3
10
12.500
20
2.400
30
0.0
11
12.500
21
3.200
31
0.0
0
LINE
8
VOM$SYSTEM$VORDEFINIERT
6
LTYP_1
62
3
10
12.500
20
3.200
30
0.0
11
12.300
21
3.200
31
0.0
0
LINE
8
VOM$SYSTEM$VORDEFINIERT
6
LTYP_1
62
3
10
5.900
20
2.600
30
0.0
11
5.900
21
2.400
31
0.0
0
LINE
8
VOM$SYSTEM$VORDEFINIERT
6
LTYP_1
62
3
10
5.900
20
2.400
30
0.0
11
7.900
21
2.400
31
0.0
0
LINE
8
VOM$SYSTEM$VORDEFINIERT
6
LTYP_1
62
3
10
7.900
20
2.400
30
0.0
11
7.900
21
2.600
31
0.0
0
LINE
8
VOM$SYSTEM$VORDEFINIERT
6
LTYP_1
62
3
10
7.900
20
2.600
30
0.0
11
5.900
21
2.600
31
0.0
0
LINE
8
VOM$SYSTEM$VORDEFINIERT
6
LTYP_1
62
3
10
12.300
20
4.750
30
0.0
11
12.300
21
4.200
31
0.0
0
LINE
8
VOM$SYSTEM$VORDEFINIERT
6
LTYP_1
62
3
10
12.300
20
4.200
30
0.0
11
12.500
21
4.200
31
0.0
0
LINE
8
VOM$SYSTEM$VORDEFINIERT
6
LTYP_1
62
3
10
12.500
20
4.200
30
0.0
11
12.500
21
4.750
31
0.0
0
LINE
8
VOM$SYSTEM$VORDEFINIERT
6
LTYP_1
62
3
10
12.500
20
4.750
30
0.0
11
12.300
21
4.750
31
0.0
0
LINE
8
VOM$SYSTEM$VORDEFINIERT
6
LTYP_1
62
3
10
5.200
20
12.100
30
0.0
11
5.200
21
11.900
31
0.0
0
LINE
8
VOM$SYSTEM$VORDEFINIERT
6
LTYP_1
62
3
10
5.200
20
11.900
30
0.0
11
5.700
21
11.900
31
0.0
0
LINE
8
VOM$SYSTEM$VORDEFINIERT
6
LTYP_1
62
3
10
5.700
20
11.900
30
0.0
11
5.700
21
12.100
31
0.0
0
LINE
8
VOM$SYSTEM$VORDEFINIERT
6
LTYP_1
62
3
10
5.700
20
12.100
30
0.0
11
5.200
21
12.100
31
0.0
0
LINE
8
M$BEL$1$100$$PCAE-PLOTVIEW$
6
LTYP_1
62
7
10
5.406
20
7.443
30
0.0
11
4.406
21
7.443
31
0.0
0
LINE
8
M$BEL$1$100$$PCAE-PLOTVIEW$
6
LTYP_1
62
7
10
4.964
20
7.380
30
0.0
11
5.354
21
7.380
31
0.0
0
LINE
8
M$BEL$1$100$$PCAE-PLOTVIEW$
6
LTYP_1
62
7
10
4.964
20
7.332
30
0.0
11
5.354
21
7.332
31
0.0
0
LINE
8
M$BEL$1$100$$PCAE-PLOTVIEW$
6
LTYP_1
62
7
10
4.964
20
7.284
30
0.0
11
5.354
21
7.284
31
0.0
0
LINE
8
M$BEL$1$100$$PCAE-PLOTVIEW$
6
LTYP_1
62
7
10
4.964
20
7.237
30
0.0
11
5.354
21
7.237
31
0.0
0
LINE
8
M$BEL$1$100$$PCAE-PLOTVIEW$
6
LTYP_1
62
7
10
4.964
20
7.189
30
0.0
11
5.354
21
7.189
31
0.0
0
LINE
8
M$BEL$1$100$$PCAE-PLOTVIEW$
6
LTYP_1
62
7
10
4.964
20
7.141
30
0.0
11
5.354
21
7.141
31
0.0
0
LINE
8
M$BEL$1$100$$PCAE-PLOTVIEW$
6
LTYP_1
62
7
10
4.964
20
7.094
30
0.0
11
5.354
21
7.094
31
0.0
0
LINE
8
M$BEL$1$100$$PCAE-PLOTVIEW$
6
LTYP_1
62
7
10
4.964
20
7.046
30
0.0
11
5.354
21
7.046
31
0.0
0
LINE
8
M$BEL$1$100$$PCAE-PLOTVIEW$
6
LTYP_1
62
7
10
4.964
20
6.998
30
0.0
11
5.354
21
6.998
31
0.0
0
LINE
8
M$BEL$1$100$$PCAE-PLOTVIEW$
6
LTYP_1
62
7
10
4.964
20
6.951
30
0.0
11
5.354
21
6.951
31
0.0
0
LINE
8
M$BEL$1$100$$PCAE-PLOTVIEW$
6
LTYP_1
62
7
10
4.406
20
6.843
30
0.0
11
5.406
21
6.843
31
0.0
0
LINE
8
M$BEL$1$100$$PCAE-PLOTVIEW$
6
LTYP_1
62
7
10
4.406
20
7.443
30
0.0
11
4.406
21
6.843
31
0.0
0
LINE
8
M$BEL$1$100$$PCAE-PLOTVIEW$
6
LTYP_1
62
7
10
4.456
20
7.388
30
0.0
11
4.456
21
6.939
31
0.0
0
LINE
8
M$BEL$1$100$$PCAE-PLOTVIEW$
6
LTYP_1
62
7
10
4.631
20
7.039
30
0.0
11
4.731
21
7.039
31
0.0
0
LINE
8
M$BEL$1$100$$PCAE-PLOTVIEW$
6
LTYP_1
62
7
10
4.681
20
7.089
30
0.0
11
4.681
21
6.893
31
0.0
0
LINE
8
M$BEL$1$100$$PCAE-PLOTVIEW$
6
LTYP_1
62
7
10
4.906
20
6.939
30
0.0
11
4.906
21
7.388
31
0.0
0
LINE
8
M$BEL$1$100$$PCAE-PLOTVIEW$
6
LTYP_1
62
7
10
4.906
20
7.388
30
0.0
11
4.456
21
7.388
31
0.0
0
LINE
8
M$BEL$1$100$$PCAE-PLOTVIEW$
6
LTYP_1
62
7
10
4.456
20
6.939
30
0.0
11
4.906
21
6.939
31
0.0
0
LINE
8
M$BEL$1$100$$PCAE-PLOTVIEW$
6
LTYP_1
62
7
10
5.406
20
6.843
30
0.0
11
5.406
21
7.443
31
0.0
0
LINE
8
M$BEL$1$100$$PCAE-PLOTVIEW$
6
LTYP_1
62
7
10
13.198
20
6.689
30
0.0
11
13.010
21
6.690
31
0.0
0
LINE
8
M$BEL$1$100$$PCAE-PLOTVIEW$
6
LTYP_1
62
7
10
13.200
20
7.113
30
0.0
11
13.198
21
6.689
31
0.0
0
LINE
8
M$BEL$1$100$$PCAE-PLOTVIEW$
6
LTYP_1
62
7
10
13.012
20
7.114
30
0.0
11
13.200
21
7.113
31
0.0
0
ARC
8
M$BEL$1$100$$PCAE-PLOTVIEW$
6
LTYP_1
62
7
10
12.696
20
6.907
30
0.0
40
0.201
50
84.738
51
274.738
0
LINE
8
M$BEL$1$100$$PCAE-PLOTVIEW$
6
LTYP_1
62
7
10
12.712
20
6.707
30
0.0
11
12.973
21
6.755
31
0.0
0
LINE
8
M$BEL$1$100$$PCAE-PLOTVIEW$
6
LTYP_1
62
7
10
12.974
20
7.055
30
0.0
11
12.714
21
7.107
31
0.0
0
LINE
8
M$BEL$1$100$$PCAE-PLOTVIEW$
6
LTYP_1
62
7
10
12.973
20
6.755
30
0.0
11
12.974
21
7.055
31
0.0
0
LINE
8
M$BEL$1$100$$PCAE-PLOTVIEW$
6
LTYP_1
62
7
10
13.010
20
6.690
30
0.0
11
13.012
21
7.114
31
0.0
0
LINE
8
M$BEL$1$100$$PCAE-PLOTVIEW$
6
LTYP_1
62
7
10
12.689
20
11.783
30
0.0
11
10.689
21
11.783
31
0.0
0
LINE
8
M$BEL$1$100$$PCAE-PLOTVIEW$
6
LTYP_1
62
7
10
10.689
20
9.783
30
0.0
11
12.689
21
9.783
31
0.0
0
LINE
8
M$BEL$1$100$$PCAE-PLOTVIEW$
6
LTYP_1
62
7
10
10.689
20
11.783
30
0.0
11
10.689
21
9.783
31
0.0
0
LINE
8
M$BEL$1$100$$PCAE-PLOTVIEW$
6
LTYP_1
62
7
10
12.689
20
9.783
30
0.0
11
12.689
21
11.783
31
0.0
0
LINE
8
M$BEL$1$100$$PCAE-PLOTVIEW$
6
LTYP_1
62
7
10
11.839
20
11.656
30
0.0
11
12.505
21
11.656
31
0.0
0
LINE
8
M$BEL$1$100$$PCAE-PLOTVIEW$
6
LTYP_1
62
7
10
11.989
20
11.283
30
0.0
11
11.739
21
11.033
31
0.0
0
LINE
8
M$BEL$1$100$$PCAE-PLOTVIEW$
6
LTYP_1
62
7
10
11.989
20
11.033
30
0.0
11
11.989
21
11.283
31
0.0
0
LINE
8
M$BEL$1$100$$PCAE-PLOTVIEW$
6
LTYP_1
62
7
10
12.589
20
11.283
30
0.0
11
11.989
21
11.283
31
0.0
0
LINE
8
M$BEL$1$100$$PCAE-PLOTVIEW$
6
LTYP_1
62
7
10
11.739
20
11.033
30
0.0
11
11.989
21
11.033
31
0.0
0
LINE
8
M$BEL$1$100$$PCAE-PLOTVIEW$
6
LTYP_1
62
7
10
11.739
20
9.883
30
0.0
11
12.589
21
9.883
31
0.0
0
LINE
8
M$BEL$1$100$$PCAE-PLOTVIEW$
6
LTYP_1
62
7
10
10.893
20
11.656
30
0.0
11
11.560
21
11.656
31
0.0
0
LINE
8
M$BEL$1$100$$PCAE-PLOTVIEW$
6
LTYP_1
62
7
10
10.893
20
11.142
30
0.0
11
10.893
21
11.656
31
0.0
0
LINE
8
M$BEL$1$100$$PCAE-PLOTVIEW$
6
LTYP_1
62
7
10
11.560
20
11.656
30
0.0
11
11.560
21
11.283
31
0.0
0
LINE
8
M$BEL$1$100$$PCAE-PLOTVIEW$
6
LTYP_1
62
7
10
11.839
20
11.142
30
0.0
11
11.839
21
11.656
31
0.0
0
LINE
8
M$BEL$1$100$$PCAE-PLOTVIEW$
6
LTYP_1
62
7
10
10.789
20
11.033
30
0.0
11
10.789
21
9.883
31
0.0
0
LINE
8
M$BEL$1$100$$PCAE-PLOTVIEW$
6
LTYP_1
62
7
10
10.789
20
9.883
30
0.0
11
11.639
21
9.883
31
0.0
0
LINE
8
M$BEL$1$100$$PCAE-PLOTVIEW$
6
LTYP_1
62
7
10
11.039
20
11.283
30
0.0
11
10.789
21
11.033
31
0.0
0
LINE
8
M$BEL$1$100$$PCAE-PLOTVIEW$
6
LTYP_1
62
7
10
10.789
20
11.033
30
0.0
11
11.039
21
11.033
31
0.0
0
LINE
8
M$BEL$1$100$$PCAE-PLOTVIEW$
6
LTYP_1
62
7
10
11.639
20
11.283
30
0.0
11
11.039
21
11.283
31
0.0
0
LINE
8
M$BEL$1$100$$PCAE-PLOTVIEW$
6
LTYP_1
62
7
10
11.039
20
11.033
30
0.0
11
11.039
21
11.283
31
0.0
0
LINE
8
M$BEL$1$100$$PCAE-PLOTVIEW$
6
LTYP_1
62
7
10
11.639
20
9.883
30
0.0
11
11.639
21
11.283
31
0.0
0
LINE
8
M$BEL$1$100$$PCAE-PLOTVIEW$
6
LTYP_1
62
7
10
11.739
20
11.033
30
0.0
11
11.739
21
9.883
31
0.0
0
LINE
8
M$BEL$1$100$$PCAE-PLOTVIEW$
6
LTYP_1
62
7
10
12.505
20
11.656
30
0.0
11
12.505
21
11.283
31
0.0
0
LINE
8
M$BEL$1$100$$PCAE-PLOTVIEW$
6
LTYP_1
62
7
10
12.589
20
9.883
30
0.0
11
12.589
21
11.283
31
0.0
0
LINE
8
M$BEL$1$100$$PCAE-PLOTVIEW$
6
LTYP_1
62
7
10
10.239
20
11.383
30
0.0
11
10.239
21
11.783
31
0.0
0
LINE
8
M$BEL$1$100$$PCAE-PLOTVIEW$
6
LTYP_1
62
7
10
10.639
20
11.783
30
0.0
11
10.639
21
11.383
31
0.0
0
LINE
8
M$BEL$1$100$$PCAE-PLOTVIEW$
6
LTYP_1
62
7
10
10.639
20
11.383
30
0.0
11
10.239
21
11.383
31
0.0
0
LINE
8
M$BEL$1$100$$PCAE-PLOTVIEW$
6
LTYP_1
62
7
10
10.239
20
11.783
30
0.0
11
10.639
21
11.783
31
0.0
0
LINE
8
M$BEL$1$100$$PCAE-PLOTVIEW$
6
LTYP_1
62
7
10
12.739
20
11.383
30
0.0
11
12.739
21
11.783
31
0.0
0
LINE
8
M$BEL$1$100$$PCAE-PLOTVIEW$
6
LTYP_1
62
7
10
13.139
20
11.783
30
0.0
11
13.139
21
11.383
31
0.0
0
LINE
8
M$BEL$1$100$$PCAE-PLOTVIEW$
6
LTYP_1
62
7
10
13.139
20
11.383
30
0.0
11
12.739
21
11.383
31
0.0
0
LINE
8
M$BEL$1$100$$PCAE-PLOTVIEW$
6
LTYP_1
62
7
10
12.739
20
11.783
30
0.0
11
13.139
21
11.783
31
0.0
0
LINE
8
M$BEL$1$100$$PCAE-PLOTVIEW$
6
LTYP_1
62
7
10
4.952
20
3.973
30
0.0
11
4.952
21
3.173
31
0.0
0
LINE
8
M$BEL$1$100$$PCAE-PLOTVIEW$
6
LTYP_1
62
7
10
5.752
20
3.173
30
0.0
11
5.752
21
3.973
31
0.0
0
LINE
8
M$BEL$1$100$$PCAE-PLOTVIEW$
6
LTYP_1
62
7
10
5.752
20
3.973
30
0.0
11
4.952
21
3.973
31
0.0
0
LINE
8
M$BEL$1$100$$PCAE-PLOTVIEW$
6
LTYP_1
62
7
10
5.052
20
3.973
30
0.0
11
5.052
21
3.283
31
0.0
0
LINE
8
M$BEL$1$100$$PCAE-PLOTVIEW$
6
LTYP_1
62
7
10
5.652
20
3.283
30
0.0
11
5.652
21
3.973
31
0.0
0
LINE
8
M$BEL$1$100$$PCAE-PLOTVIEW$
6
LTYP_1
62
7
10
5.052
20
3.323
30
0.0
11
5.652
21
3.323
31
0.0
0
LINE
8
M$BEL$1$100$$PCAE-PLOTVIEW$
6
LTYP_1
62
7
10
4.952
20
3.283
30
0.0
11
5.752
21
3.283
31
0.0
0
LINE
8
M$BEL$1$100$$PCAE-PLOTVIEW$
6
LTYP_1
62
7
10
4.952
20
3.173
30
0.0
11
5.752
21
3.173
31
0.0
0
LINE
8
M$BEL$1$100$$PCAE-PLOTVIEW$
6
LTYP_1
62
7
10
3.952
20
3.973
30
0.0
11
3.952
21
3.173
31
0.0
0
LINE
8
M$BEL$1$100$$PCAE-PLOTVIEW$
6
LTYP_1
62
7
10
4.752
20
3.173
30
0.0
11
4.752
21
3.973
31
0.0
0
LINE
8
M$BEL$1$100$$PCAE-PLOTVIEW$
6
LTYP_1
62
7
10
4.752
20
3.973
30
0.0
11
3.952
21
3.973
31
0.0
0
LINE
8
M$BEL$1$100$$PCAE-PLOTVIEW$
6
LTYP_1
62
7
10
4.052
20
3.973
30
0.0
11
4.052
21
3.283
31
0.0
0
LINE
8
M$BEL$1$100$$PCAE-PLOTVIEW$
6
LTYP_1
62
7
10
4.652
20
3.283
30
0.0
11
4.652
21
3.973
31
0.0
0
LINE
8
M$BEL$1$100$$PCAE-PLOTVIEW$
6
LTYP_1
62
7
10
4.052
20
3.323
30
0.0
11
4.652
21
3.323
31
0.0
0
LINE
8
M$BEL$1$100$$PCAE-PLOTVIEW$
6
LTYP_1
62
7
10
3.952
20
3.283
30
0.0
11
4.752
21
3.283
31
0.0
0
LINE
8
M$BEL$1$100$$PCAE-PLOTVIEW$
6
LTYP_1
62
7
10
3.952
20
3.173
30
0.0
11
4.752
21
3.173
31
0.0
0
LINE
8
M$BEL$1$100$$PCAE-PLOTVIEW$
6
LTYP_1
62
7
10
5.770
20
4.938
30
0.0
11
5.770
21
4.238
31
0.0
0
LINE
8
M$BEL$1$100$$PCAE-PLOTVIEW$
6
LTYP_1
62
7
10
5.770
20
4.238
30
0.0
11
3.938
21
4.238
31
0.0
0
LINE
8
M$BEL$1$100$$PCAE-PLOTVIEW$
6
LTYP_1
62
7
10
3.938
20
4.938
30
0.0
11
5.770
21
4.938
31
0.0
0
LINE
8
M$BEL$1$100$$PCAE-PLOTVIEW$
6
LTYP_1
62
7
10
3.938
20
4.238
30
0.0
11
3.938
21
4.938
31
0.0
0
LINE
8
M$BEL$1$100$$PCAE-PLOTVIEW$
6
LTYP_1
62
7
10
5.946
20
5.005
30
0.0
11
6.746
21
5.005
31
0.0
0
LINE
8
M$BEL$1$100$$PCAE-PLOTVIEW$
6
LTYP_1
62
7
10
6.746
20
4.205
30
0.0
11
5.946
21
4.205
31
0.0
0
LINE
8
M$BEL$1$100$$PCAE-PLOTVIEW$
6
LTYP_1
62
7
10
5.946
20
4.205
30
0.0
11
5.946
21
5.005
31
0.0
0
LINE
8
M$BEL$1$100$$PCAE-PLOTVIEW$
6
LTYP_1
62
7
10
5.946
20
4.905
30
0.0
11
6.636
21
4.905
31
0.0
0
LINE
8
M$BEL$1$100$$PCAE-PLOTVIEW$
6
LTYP_1
62
7
10
6.636
20
4.305
30
0.0
11
5.946
21
4.305
31
0.0
0
LINE
8
M$BEL$1$100$$PCAE-PLOTVIEW$
6
LTYP_1
62
7
10
6.596
20
4.905
30
0.0
11
6.596
21
4.306
31
0.0
0
LINE
8
M$BEL$1$100$$PCAE-PLOTVIEW$
6
LTYP_1
62
7
10
6.636
20
5.005
30
0.0
11
6.636
21
4.205
31
0.0
0
LINE
8
M$BEL$1$100$$PCAE-PLOTVIEW$
6
LTYP_1
62
7
10
6.746
20
5.005
30
0.0
11
6.746
21
4.205
31
0.0
0
LINE
8
M$BEL$1$100$$PCAE-PLOTVIEW$
6
LTYP_1
62
7
10
3.751
20
4.197
30
0.0
11
2.951
21
4.197
31
0.0
0
LINE
8
M$BEL$1$100$$PCAE-PLOTVIEW$
6
LTYP_1
62
7
10
2.951
20
4.997
30
0.0
11
3.751
21
4.997
31
0.0
0
LINE
8
M$BEL$1$100$$PCAE-PLOTVIEW$
6
LTYP_1
62
7
10
3.751
20
4.997
30
0.0
11
3.751
21
4.197
31
0.0
0
LINE
8
M$BEL$1$100$$PCAE-PLOTVIEW$
6
LTYP_1
62
7
10
3.751
20
4.297
30
0.0
11
3.061
21
4.297
31
0.0
0
LINE
8
M$BEL$1$100$$PCAE-PLOTVIEW$
6
LTYP_1
62
7
10
3.061
20
4.897
30
0.0
11
3.751
21
4.897
31
0.0
0
LINE
8
M$BEL$1$100$$PCAE-PLOTVIEW$
6
LTYP_1
62
7
10
3.101
20
4.297
30
0.0
11
3.101
21
4.896
31
0.0
0
LINE
8
M$BEL$1$100$$PCAE-PLOTVIEW$
6
LTYP_1
62
7
10
3.061
20
4.197
30
0.0
11
3.061
21
4.997
31
0.0
0
LINE
8
M$BEL$1$100$$PCAE-PLOTVIEW$
6
LTYP_1
62
7
10
2.951
20
4.197
30
0.0
11
2.951
21
4.997
31
0.0
0
LINE
8
M$BEL$1$100$$PCAE-PLOTVIEW$
6
LTYP_1
62
7
10
4.577
20
5.749
30
0.0
11
4.577
21
5.107
31
0.0
0
LINE
8
M$BEL$1$100$$PCAE-PLOTVIEW$
6
LTYP_1
62
7
10
5.177
20
5.749
30
0.0
11
5.177
21
5.107
31
0.0
0
LINE
8
M$BEL$1$100$$PCAE-PLOTVIEW$
6
LTYP_1
62
7
10
3.877
20
5.104
30
0.0
11
3.877
21
5.904
31
0.0
0
LINE
8
M$BEL$1$100$$PCAE-PLOTVIEW$
6
LTYP_1
62
7
10
5.877
20
5.904
30
0.0
11
5.877
21
5.104
31
0.0
0
LINE
8
M$BEL$1$100$$PCAE-PLOTVIEW$
6
LTYP_1
62
7
10
5.877
20
5.104
30
0.0
11
3.877
21
5.104
31
0.0
0
LINE
8
M$BEL$1$100$$PCAE-PLOTVIEW$
6
LTYP_1
62
7
10
3.977
20
5.104
30
0.0
11
3.977
21
5.794
31
0.0
0
LINE
8
M$BEL$1$100$$PCAE-PLOTVIEW$
6
LTYP_1
62
7
10
5.777
20
5.794
30
0.0
11
5.777
21
5.104
31
0.0
0
LINE
8
M$BEL$1$100$$PCAE-PLOTVIEW$
6
LTYP_1
62
7
10
3.977
20
5.754
30
0.0
11
5.777
21
5.754
31
0.0
0
LINE
8
M$BEL$1$100$$PCAE-PLOTVIEW$
6
LTYP_1
62
7
10
3.877
20
5.794
30
0.0
11
5.877
21
5.794
31
0.0
0
LINE
8
M$BEL$1$100$$PCAE-PLOTVIEW$
6
LTYP_1
62
7
10
3.877
20
5.904
30
0.0
11
5.877
21
5.904
31
0.0
0
LINE
8
M$BEL$1$100$$PCAE-PLOTVIEW$
6
LTYP_1
62
7
10
2.670
20
10.764
30
0.0
11
2.670
21
9.764
31
0.0
0
LINE
8
M$BEL$1$100$$PCAE-PLOTVIEW$
6
LTYP_1
62
7
10
4.670
20
9.764
30
0.0
11
4.670
21
10.764
31
0.0
0
LINE
8
M$BEL$1$100$$PCAE-PLOTVIEW$
6
LTYP_1
62
7
10
2.670
20
9.764
30
0.0
11
4.670
21
9.764
31
0.0
0
LINE
8
M$BEL$1$100$$PCAE-PLOTVIEW$
6
LTYP_1
62
7
10
4.670
20
10.764
30
0.0
11
2.670
21
10.764
31
0.0
0
LINE
8
M$BEL$1$100$$PCAE-PLOTVIEW$
6
LTYP_1
62
7
10
3.170
20
10.689
30
0.0
11
3.170
21
10.089
31
0.0
0
LINE
8
M$BEL$1$100$$PCAE-PLOTVIEW$
6
LTYP_1
62
7
10
3.170
20
10.089
30
0.0
11
3.420
21
9.839
31
0.0
0
LINE
8
M$BEL$1$100$$PCAE-PLOTVIEW$
6
LTYP_1
62
7
10
3.420
20
10.089
30
0.0
11
3.170
21
10.089
31
0.0
0
LINE
8
M$BEL$1$100$$PCAE-PLOTVIEW$
6
LTYP_1
62
7
10
3.420
20
9.839
30
0.0
11
3.420
21
10.089
31
0.0
0
LINE
8
M$BEL$1$100$$PCAE-PLOTVIEW$
6
LTYP_1
62
7
10
2.797
20
10.610
30
0.0
11
3.170
21
10.610
31
0.0
0
LINE
8
M$BEL$1$100$$PCAE-PLOTVIEW$
6
LTYP_1
62
7
10
2.797
20
9.944
30
0.0
11
2.797
21
10.610
31
0.0
0
LINE
8
M$BEL$1$100$$PCAE-PLOTVIEW$
6
LTYP_1
62
7
10
4.570
20
10.689
30
0.0
11
3.170
21
10.689
31
0.0
0
LINE
8
M$BEL$1$100$$PCAE-PLOTVIEW$
6
LTYP_1
62
7
10
3.420
20
9.839
30
0.0
11
4.570
21
9.839
31
0.0
0
LINE
8
M$BEL$1$100$$PCAE-PLOTVIEW$
6
LTYP_1
62
7
10
4.570
20
9.839
30
0.0
11
4.570
21
10.689
31
0.0
0
LINE
8
M$BEL$1$100$$PCAE-PLOTVIEW$
6
LTYP_1
62
7
10
3.311
20
9.944
30
0.0
11
2.797
21
9.944
31
0.0
0
LINE
8
M$BEL$1$100$$PCAE-PLOTVIEW$
6
LTYP_1
62
7
10
3.070
20
10.814
30
0.0
11
2.670
21
10.814
31
0.0
0
LINE
8
M$BEL$1$100$$PCAE-PLOTVIEW$
6
LTYP_1
62
7
10
2.670
20
11.214
30
0.0
11
3.070
21
11.214
31
0.0
0
LINE
8
M$BEL$1$100$$PCAE-PLOTVIEW$
6
LTYP_1
62
7
10
3.070
20
11.214
30
0.0
11
3.070
21
10.814
31
0.0
0
LINE
8
M$BEL$1$100$$PCAE-PLOTVIEW$
6
LTYP_1
62
7
10
2.670
20
10.814
30
0.0
11
2.670
21
11.214
31
0.0
0
LINE
8
M$BEL$1$100$$PCAE-PLOTVIEW$
6
LTYP_1
62
7
10
12.860
20
7.691
30
0.0
11
12.860
21
8.191
31
0.0
0
LINE
8
M$BEL$1$100$$PCAE-PLOTVIEW$
6
LTYP_1
62
7
10
13.360
20
7.691
30
0.0
11
12.860
21
7.691
31
0.0
0
LINE
8
M$BEL$1$100$$PCAE-PLOTVIEW$
6
LTYP_1
62
7
10
13.360
20
8.191
30
0.0
11
13.360
21
7.691
31
0.0
0
LINE
8
M$BEL$1$100$$PCAE-PLOTVIEW$
6
LTYP_1
62
7
10
12.860
20
8.191
30
0.0
11
13.360
21
8.191
31
0.0
0
LINE
8
M$BEL$1$100$$PCAE-PLOTVIEW$
6
LTYP_1
62
7
10
12.358
20
7.691
30
0.0
11
12.358
21
8.191
31
0.0
0
LINE
8
M$BEL$1$100$$PCAE-PLOTVIEW$
6
LTYP_1
62
7
10
12.858
20
7.691
30
0.0
11
12.358
21
7.691
31
0.0
0
LINE
8
M$BEL$1$100$$PCAE-PLOTVIEW$
6
LTYP_1
62
7
10
12.858
20
8.191
30
0.0
11
12.858
21
7.691
31
0.0
0
LINE
8
M$BEL$1$100$$PCAE-PLOTVIEW$
6
LTYP_1
62
7
10
12.358
20
8.191
30
0.0
11
12.858
21
8.191
31
0.0
0
LINE
8
M$BEL$1$100$$PCAE-PLOTVIEW$
6
LTYP_1
62
7
10
11.857
20
7.694
30
0.0
11
11.857
21
8.194
31
0.0
0
LINE
8
M$BEL$1$100$$PCAE-PLOTVIEW$
6
LTYP_1
62
7
10
12.357
20
7.694
30
0.0
11
11.857
21
7.694
31
0.0
0
LINE
8
M$BEL$1$100$$PCAE-PLOTVIEW$
6
LTYP_1
62
7
10
12.357
20
8.194
30
0.0
11
12.357
21
7.694
31
0.0
0
LINE
8
M$BEL$1$100$$PCAE-PLOTVIEW$
6
LTYP_1
62
7
10
11.857
20
8.194
30
0.0
11
12.357
21
8.194
31
0.0
0
LINE
8
M$BEL$1$100$$PCAE-PLOTVIEW$
6
LTYP_1
62
7
10
11.351
20
7.694
30
0.0
11
11.351
21
8.194
31
0.0
0
LINE
8
M$BEL$1$100$$PCAE-PLOTVIEW$
6
LTYP_1
62
7
10
11.851
20
7.694
30
0.0
11
11.351
21
7.694
31
0.0
0
LINE
8
M$BEL$1$100$$PCAE-PLOTVIEW$
6
LTYP_1
62
7
10
11.851
20
8.194
30
0.0
11
11.851
21
7.694
31
0.0
0
LINE
8
M$BEL$1$100$$PCAE-PLOTVIEW$
6
LTYP_1
62
7
10
11.351
20
8.194
30
0.0
11
11.851
21
8.194
31
0.0
0
LINE
8
M$BEL$1$100$$PCAE-PLOTVIEW$
6
LTYP_1
62
7
10
3.237
20
8.427
30
0.0
11
2.637
21
8.427
31
0.0
0
LINE
8
M$BEL$1$100$$PCAE-PLOTVIEW$
6
LTYP_1
62
7
10
2.637
20
7.827
30
0.0
11
3.237
21
7.827
31
0.0
0
LINE
8
M$BEL$1$100$$PCAE-PLOTVIEW$
6
LTYP_1
62
7
10
2.637
20
8.427
30
0.0
11
2.637
21
7.827
31
0.0
0
LINE
8
M$BEL$1$100$$PCAE-PLOTVIEW$
6
LTYP_1
62
7
10
3.237
20
7.827
30
0.0
11
3.237
21
8.427
31
0.0
0
ARC
8
M$BEL$1$100$$PCAE-PLOTVIEW$
6
LTYP_1
62
7
10
3.065
20
8.259
30
0.0
40
0.100
50
90.000
51
180.000
0
ARC
8
M$BEL$1$100$$PCAE-PLOTVIEW$
6
LTYP_1
62
7
10
3.065
20
8.259
30
0.0
40
0.100
50
0.000
51
90.000
0
ARC
8
M$BEL$1$100$$PCAE-PLOTVIEW$
6
LTYP_1
62
7
10
3.065
20
8.259
30
0.0
40
0.100
50
270.000
51
360.000
0
ARC
8
M$BEL$1$100$$PCAE-PLOTVIEW$
6
LTYP_1
62
7
10
3.065
20
8.259
30
0.0
40
0.100
50
180.000
51
270.000
0
ARC
8
M$BEL$1$100$$PCAE-PLOTVIEW$
6
LTYP_1
62
7
10
3.065
20
7.999
30
0.0
40
0.100
50
90.000
51
180.000
0
ARC
8
M$BEL$1$100$$PCAE-PLOTVIEW$
6
LTYP_1
62
7
10
3.065
20
7.999
30
0.0
40
0.100
50
0.000
51
90.000
0
ARC
8
M$BEL$1$100$$PCAE-PLOTVIEW$
6
LTYP_1
62
7
10
3.065
20
7.999
30
0.0
40
0.100
50
270.000
51
360.000
0
ARC
8
M$BEL$1$100$$PCAE-PLOTVIEW$
6
LTYP_1
62
7
10
3.065
20
7.999
30
0.0
40
0.100
50
180.000
51
270.000
0
ARC
8
M$BEL$1$100$$PCAE-PLOTVIEW$
6
LTYP_1
62
7
10
2.805
20
7.999
30
0.0
40
0.100
50
90.000
51
180.000
0
ARC
8
M$BEL$1$100$$PCAE-PLOTVIEW$
6
LTYP_1
62
7
10
2.805
20
7.999
30
0.0
40
0.100
50
0.000
51
90.000
0
ARC
8
M$BEL$1$100$$PCAE-PLOTVIEW$
6
LTYP_1
62
7
10
2.805
20
7.999
30
0.0
40
0.100
50
270.000
51
360.000
0
ARC
8
M$BEL$1$100$$PCAE-PLOTVIEW$
6
LTYP_1
62
7
10
2.805
20
7.999
30
0.0
40
0.100
50
180.000
51
270.000
0
ARC
8
M$BEL$1$100$$PCAE-PLOTVIEW$
6
LTYP_1
62
7
10
2.805
20
8.259
30
0.0
40
0.100
50
90.000
51
180.000
0
ARC
8
M$BEL$1$100$$PCAE-PLOTVIEW$
6
LTYP_1
62
7
10
2.805
20
8.259
30
0.0
40
0.100
50
0.000
51
90.000
0
ARC
8
M$BEL$1$100$$PCAE-PLOTVIEW$
6
LTYP_1
62
7
10
2.805
20
8.259
30
0.0
40
0.100
50
270.000
51
360.000
0
ARC
8
M$BEL$1$100$$PCAE-PLOTVIEW$
6
LTYP_1
62
7
10
2.805
20
8.259
30
0.0
40
0.100
50
180.000
51
270.000
0
LINE
8
M$BEL$1$100$$PCAE-PLOTVIEW$
6
LTYP_1
62
7
10
9.058
20
11.872
30
0.0
11
7.358
21
11.872
31
0.0
0
LINE
8
M$BEL$1$100$$PCAE-PLOTVIEW$
6
LTYP_1
62
7
10
8.938
20
11.802
30
0.0
11
7.478
21
11.802
31
0.0
0
LINE
8
M$BEL$1$100$$PCAE-PLOTVIEW$
6
LTYP_1
62
7
10
7.478
20
11.192
30
0.0
11
8.938
21
11.192
31
0.0
0
LINE
8
M$BEL$1$100$$PCAE-PLOTVIEW$
6
LTYP_1
62
7
10
7.358
20
11.122
30
0.0
11
9.058
21
11.122
31
0.0
0
LINE
8
M$BEL$1$100$$PCAE-PLOTVIEW$
6
LTYP_1
62
7
10
7.358
20
11.872
30
0.0
11
7.358
21
11.122
31
0.0
0
ARC
8
M$BEL$1$100$$PCAE-PLOTVIEW$
6
LTYP_1
62
7
10
7.478
20
11.752
30
0.0
40
0.050
50
89.999
51
180.001
0
LINE
8
M$BEL$1$100$$PCAE-PLOTVIEW$
6
LTYP_1
62
7
10
7.428
20
11.752
30
0.0
11
7.428
21
11.242
31
0.0
0
ARC
8
M$BEL$1$100$$PCAE-PLOTVIEW$
6
LTYP_1
62
7
10
7.478
20
11.242
30
0.0
40
0.050
50
179.999
51
270.001
0
LINE
8
M$BEL$1$100$$PCAE-PLOTVIEW$
6
LTYP_1
62
7
10
9.058
20
11.122
30
0.0
11
9.058
21
11.872
31
0.0
0
ARC
8
M$BEL$1$100$$PCAE-PLOTVIEW$
6
LTYP_1
62
7
10
8.938
20
11.752
30
0.0
40
0.050
50
359.999
51
90.001
0
LINE
8
M$BEL$1$100$$PCAE-PLOTVIEW$
6
LTYP_1
62
7
10
8.988
20
11.242
30
0.0
11
8.988
21
11.752
31
0.0
0
ARC
8
M$BEL$1$100$$PCAE-PLOTVIEW$
6
LTYP_1
62
7
10
8.938
20
11.242
30
0.0
40
0.050
50
269.999
51
0.001
0
LINE
8
M$BEL$1$100$$PCAE-PLOTVIEW$
6
LTYP_1
62
7
10
8.246
20
9.359
30
0.0
11
7.346
21
9.359
31
0.0
0
LINE
8
M$BEL$1$100$$PCAE-PLOTVIEW$
6
LTYP_1
62
7
10
8.126
20
9.289
30
0.0
11
7.466
21
9.289
31
0.0
0
LINE
8
M$BEL$1$100$$PCAE-PLOTVIEW$
6
LTYP_1
62
7
10
7.466
20
8.529
30
0.0
11
8.126
21
8.529
31
0.0
0
LINE
8
M$BEL$1$100$$PCAE-PLOTVIEW$
6
LTYP_1
62
7
10
7.346
20
8.459
30
0.0
11
8.246
21
8.459
31
0.0
0
LINE
8
M$BEL$1$100$$PCAE-PLOTVIEW$
6
LTYP_1
62
7
10
7.346
20
9.359
30
0.0
11
7.346
21
8.459
31
0.0
0
ARC
8
M$BEL$1$100$$PCAE-PLOTVIEW$
6
LTYP_1
62
7
10
7.466
20
9.239
30
0.0
40
0.050
50
89.999
51
180.001
0
LINE
8
M$BEL$1$100$$PCAE-PLOTVIEW$
6
LTYP_1
62
7
10
7.416
20
9.239
30
0.0
11
7.416
21
8.579
31
0.0
0
ARC
8
M$BEL$1$100$$PCAE-PLOTVIEW$
6
LTYP_1
62
7
10
7.466
20
8.579
30
0.0
40
0.050
50
179.999
51
270.001
0
LINE
8
M$BEL$1$100$$PCAE-PLOTVIEW$
6
LTYP_1
62
7
10
8.246
20
8.459
30
0.0
11
8.246
21
9.359
31
0.0
0
ARC
8
M$BEL$1$100$$PCAE-PLOTVIEW$
6
LTYP_1
62
7
10
8.126
20
9.239
30
0.0
40
0.050
50
359.999
51
90.001
0
LINE
8
M$BEL$1$100$$PCAE-PLOTVIEW$
6
LTYP_1
62
7
10
8.176
20
8.579
30
0.0
11
8.176
21
9.239
31
0.0
0
ARC
8
M$BEL$1$100$$PCAE-PLOTVIEW$
6
LTYP_1
62
7
10
8.126
20
8.579
30
0.0
40
0.050
50
269.999
51
0.001
0
LINE
8
M$BEL$1$100$$PCAE-PLOTVIEW$
6
LTYP_1
62
7
10
7.719
20
10.536
30
0.0
11
7.319
21
10.536
31
0.0
0
LINE
8
M$BEL$1$100$$PCAE-PLOTVIEW$
6
LTYP_1
62
7
10
7.719
20
10.036
30
0.0
11
7.719
21
10.536
31
0.0
0
LINE
8
M$BEL$1$100$$PCAE-PLOTVIEW$
6
LTYP_1
62
7
10
7.319
20
10.536
30
0.0
11
7.319
21
10.036
31
0.0
0
LINE
8
M$BEL$1$100$$PCAE-PLOTVIEW$
6
LTYP_1
62
7
10
7.674
20
10.491
30
0.0
11
7.674
21
10.081
31
0.0
0
LINE
8
M$BEL$1$100$$PCAE-PLOTVIEW$
6
LTYP_1
62
7
10
7.499
20
10.206
30
0.0
11
7.319
21
10.206
31
0.0
0
LINE
8
M$BEL$1$100$$PCAE-PLOTVIEW$
6
LTYP_1
62
7
10
7.452
20
10.236
30
0.0
11
7.452
21
10.176
31
0.0
0
LINE
8
M$BEL$1$100$$PCAE-PLOTVIEW$
6
LTYP_1
62
7
10
7.379
20
10.111
30
0.0
11
7.379
21
10.461
31
0.0
0
LINE
8
M$BEL$1$100$$PCAE-PLOTVIEW$
6
LTYP_1
62
7
10
7.379
20
10.461
30
0.0
11
7.674
21
10.491
31
0.0
0
LINE
8
M$BEL$1$100$$PCAE-PLOTVIEW$
6
LTYP_1
62
7
10
7.452
20
10.396
30
0.0
11
7.452
21
10.336
31
0.0
0
LINE
8
M$BEL$1$100$$PCAE-PLOTVIEW$
6
LTYP_1
62
7
10
7.499
20
10.366
30
0.0
11
7.319
21
10.366
31
0.0
0
LINE
8
M$BEL$1$100$$PCAE-PLOTVIEW$
6
LTYP_1
62
7
10
7.674
20
10.081
30
0.0
11
7.379
21
10.111
31
0.0
0
LINE
8
M$BEL$1$100$$PCAE-PLOTVIEW$
6
LTYP_1
62
7
10
7.319
20
10.036
30
0.0
11
7.719
21
10.036
31
0.0
0
ENDSEC
0
EOF
